0
SECTION
2
HEADER
  9
$EXTMIN
10
0
20
0
30
0
  9
$EXTMAX
10
1543.337
20
1274.342
30
0
  9
$LTSCALE
40
5.000
  9
$DIMSCALE
40
5.000
  9
$PDMODE
70
0
  9
$PDSIZE
40
40
0
ENDSEC
0
SECTION
2
TABLES
0
TABLE
2
LTYPE
70
9
0
LTYPE
5
1f4
2
CONTINUOUS
70
0
3
実線
72
65
73
0
40
0.0
0
LTYPE
5
1f5
2
DOT
70
0
3
--  --  --  --  --  --  --  --     
72
65
73
2
40
5.000
49
1.000
49
-4.000
0
LTYPE
5
1f6
2
DASHED
70
0
3
----    ----    ----    ----    
72
65
73
2
40
5.000
49
2.000
49
-3.000
0
LTYPE
5
1f7
2
DASHED2
70
0
3
------  ------  ------  ------ 
72
65
73
2
40
10.000
49
4.000
49
-6.000
0
LTYPE
5
1f8
2
CENTER
70
0
3
----- - ----- - ----- - ----- - 
72
65
73
4
40
9.000
49
6.000
49
-1.000
49
1.000
49
-1.000
0
LTYPE
5
1f9
2
CENTER2
70
0
3
----------  --  ----------  -- 
72
65
73
4
40
18.000
49
12.000
49
-2.000
49
2.000
49
-2.000
0
LTYPE
5
1fa
2
PHANTOM
70
0
3
--- - - --- - - --- - - --- - -
72
65
73
6
40
10.000
49
5.000
49
-1.000
49
1.000
49
-1.000
49
1.000
49
-1.000
0
LTYPE
5
1fb
2
PHANTOM2
70
0
3
--------  -  -  --------  -  -
72
65
73
6
40
16.000
49
6.000
49
-2.000
49
2.000
49
-2.000
49
2.000
49
-2.000
0
LTYPE
5
1fc
2
HIDDEN
70
0
3
-   -   -   -   -   -   -   -   
72
65
73
2
40
2.500
49
0.500
49
-2.000
0
ENDTAB
0
TABLE
2
STYLE
70
1
0
STYLE
5
1fd
100
AcDbSymbolTableRecord
100
AcDbTextStyleTableRecord
2
STANDARD
70
0
40
0.0
41
1.0
50
0.0
71
0
42
0.0
3
txt.shx
4
extfont.shx
0
STYLE
5
1fe
100
AcDbSymbolTableRecord
100
AcDbTextStyleTableRecord
2
TATEGAKI
70
4
40
0.0
41
1.0
50
0.0
71
0
42
0.0
3
txt.shx
4
extfont.shx
0
STYLE
5
1ff
100
AcDbSymbolTableRecord
100
AcDbTextStyleTableRecord
2
MT
70
0
40
0.0
41
1.0
50
0.0
71
0
42
0.0
3
MS Mincho
4

0
STYLE
5
200
100
AcDbSymbolTableRecord
100
AcDbTextStyleTableRecord
2
TMT
70
4
40
0.0
41
1.0
50
0.0
71
0
42
0.0
3
@MS Mincho
4

0
ENDTAB
0
TABLE
2
LAYER
5
3e8
100
AcDbSymbolTable
70
10
0
LAYER
5
3e9
100
AcDbSymbolTableRecord
100
AcDbLayerTableRecord
2
0
70
64
62
  7
  6
CONTINUOUS
0
LAYER
5
3ea
100
AcDbSymbolTableRecord
100
AcDbLayerTableRecord
2
0-0
70
64
62
  7
  6
CONTINUOUS
0
LAYER
5
3eb
100
AcDbSymbolTableRecord
100
AcDbLayerTableRecord
2
ADD_LINE
70
64
62
  -7
  6
CONTINUOUS
0
ENDTAB
0
ENDSEC
0
SECTION
2
ENTITIES
0
LINE
5
3ec
8
0-0
6
CONTINUOUS
62
  7
10
899.688
20
1112.176
30
0.0
11
1159.688
21
1112.176
31
0.0
0
LINE
5
3ed
8
0-0
6
CONTINUOUS
62
  7
10
899.688
20
1072.176
30
0.0
11
899.688
21
1112.176
31
0.0
0
LINE
5
3ee
8
0-0
6
CONTINUOUS
62
  7
10
854.688
20
1072.176
30
0.0
11
899.688
21
1072.176
31
0.0
0
LINE
5
3ef
8
0-0
6
CONTINUOUS
62
  7
10
854.688
20
807.176
30
0.0
11
854.688
21
1072.176
31
0.0
0
LINE
5
3f0
8
0-0
6
CONTINUOUS
62
  7
10
1119.688
20
837.176
30
0.0
11
1159.688
21
837.176
31
0.0
0
LINE
5
3f1
8
0-0
6
CONTINUOUS
62
  7
10
1159.688
20
837.176
30
0.0
11
1159.688
21
1112.176
31
0.0
0
LINE
5
3f2
8
0-0
6
CONTINUOUS
62
  7
10
854.688
20
807.176
30
0.0
11
1119.688
21
807.176
31
0.0
0
LINE
5
3f3
8
0-0
6
CONTINUOUS
62
  7
10
1119.688
20
807.176
30
0.0
11
1119.688
21
837.176
31
0.0
0
LINE
5
3f4
8
0-0
6
CONTINUOUS
62
  7
10
924.688
20
1104.176
30
0.0
11
924.688
21
1112.176
31
0.0
0
LINE
5
3f5
8
0-0
6
CONTINUOUS
62
  7
10
924.688
20
1104.176
30
0.0
11
1151.688
21
1104.176
31
0.0
0
LINE
5
3f6
8
0-0
6
CONTINUOUS
62
  7
10
1151.688
20
837.176
30
0.0
11
1151.688
21
1104.176
31
0.0
0
LINE
5
3f7
8
0-0
6
CONTINUOUS
62
  7
10
1425.797
20
1112.176
30
0.0
11
1425.797
21
1104.176
31
0.0
0
LINE
5
3f8
8
0-0
6
CONTINUOUS
62
  7
10
1415.797
20
1104.176
30
0.0
11
1415.797
21
807.176
31
0.0
0
LINE
5
3f9
8
0-0
6
CONTINUOUS
62
  7
10
1395.797
20
1112.176
30
0.0
11
1395.797
21
1104.176
31
0.0
0
LINE
5
3fa
8
0-0
6
CONTINUOUS
62
  7
10
1415.797
20
1104.176
30
0.0
11
1425.797
21
1104.176
31
0.0
0
LINE
5
3fb
8
0-0
6
CONTINUOUS
62
  7
10
1352.797
20
1072.176
30
0.0
11
1358.797
21
1072.176
31
0.0
0
LINE
5
3fc
8
0-0
6
CONTINUOUS
62
  7
10
1358.797
20
1112.176
30
0.0
11
1358.797
21
1072.176
31
0.0
0
LINE
5
3fd
8
0-0
6
CONTINUOUS
62
  7
10
1358.797
20
1112.176
30
0.0
11
1425.797
21
1112.176
31
0.0
0
LINE
5
3fe
8
0-0
6
CONTINUOUS
62
  7
10
1358.797
20
1104.176
30
0.0
11
1401.797
21
1104.176
31
0.0
0
LINE
5
3ff
8
0-0
6
CONTINUOUS
62
  7
10
1352.797
20
815.176
30
0.0
11
1352.797
21
1072.176
31
0.0
0
LINE
5
400
8
0-0
6
CONTINUOUS
62
  7
10
1409.797
20
807.176
30
0.0
11
1415.797
21
807.176
31
0.0
0
LINE
5
401
8
0-0
6
CONTINUOUS
62
  7
10
1401.797
20
815.176
30
0.0
11
1401.797
21
1104.176
31
0.0
0
LINE
5
402
8
0-0
6
CONTINUOUS
62
  7
10
1360.797
20
807.176
30
0.0
11
1409.797
21
807.176
31
0.0
0
LINE
5
403
8
0-0
6
CONTINUOUS
62
  7
10
719.557
20
807.176
30
0.0
11
719.557
21
1112.176
31
0.0
0
LINE
5
404
8
0-0
6
CONTINUOUS
62
  7
10
805.427
20
807.176
30
0.0
11
719.557
21
807.176
31
0.0
0
LINE
5
405
8
0-0
6
CONTINUOUS
62
  7
10
805.427
20
1112.176
30
0.0
11
719.557
21
1112.176
31
0.0
0
LINE
5
406
8
0-0
6
CONTINUOUS
62
  7
10
752.951
20
807.176
30
0.0
11
752.951
21
1072.176
31
0.0
0
LINE
5
407
8
0-0
6
CONTINUOUS
62
  7
10
805.427
20
807.176
30
0.0
11
752.951
21
807.176
31
0.0
0
LINE
5
408
8
0-0
6
CONTINUOUS
62
  7
10
805.427
20
1072.176
30
0.0
11
752.951
21
1072.176
31
0.0
0
LINE
5
409
8
0-0
6
CONTINUOUS
62
  7
10
752.951
20
1072.176
30
0.0
11
752.951
21
1112.176
31
0.0
0
LINE
5
40a
8
0-0
6
CONTINUOUS
62
  7
10
805.427
20
1112.176
30
0.0
11
752.951
21
1112.176
31
0.0
0
LINE
5
40b
8
0-0
6
CONTINUOUS
62
  7
10
854.688
20
709.501
30
0.0
11
1159.688
21
709.501
31
0.0
0
LINE
5
40c
8
0-0
6
CONTINUOUS
62
  7
10
854.688
20
771.518
30
0.0
11
854.688
21
709.501
31
0.0
0
LINE
5
40d
8
0-0
6
CONTINUOUS
62
  7
10
1159.688
20
771.518
30
0.0
11
1159.688
21
709.501
31
0.0
0
LINE
5
40e
8
0-0
6
CONTINUOUS
62
  7
10
854.688
20
740.509
30
0.0
11
1119.688
21
740.509
31
0.0
0
LINE
5
40f
8
0-0
6
CONTINUOUS
62
  7
10
854.688
20
771.518
30
0.0
11
854.688
21
740.509
31
0.0
0
LINE
5
410
8
0-0
6
CONTINUOUS
62
  7
10
1119.688
20
771.518
30
0.0
11
1119.688
21
740.509
31
0.0
0
LINE
5
411
8
0-0
6
CONTINUOUS
62
  7
10
1119.688
20
740.509
30
0.0
11
1159.688
21
740.509
31
0.0
0
LINE
5
412
8
0-0
6
CONTINUOUS
62
  7
10
1159.688
20
771.518
30
0.0
11
1159.688
21
740.509
31
0.0
0
LINE
5
413
8
0-0
6
CONTINUOUS
62
  7
10
1543.337
20
807.176
30
0.0
11
1543.337
21
1112.176
31
0.0
0
LINE
5
414
8
0-0
6
CONTINUOUS
62
  7
10
1478.472
20
807.176
30
0.0
11
1543.337
21
807.176
31
0.0
0
LINE
5
415
8
0-0
6
CONTINUOUS
62
  7
10
1478.472
20
1112.176
30
0.0
11
1543.337
21
1112.176
31
0.0
0
LINE
5
416
8
0-0
6
CONTINUOUS
62
  7
10
854.688
20
1271.842
30
0.0
11
1159.688
21
1271.842
31
0.0
0
LINE
5
417
8
0-0
6
CONTINUOUS
62
  7
10
854.688
20
1146.557
30
0.0
11
854.688
21
1271.842
31
0.0
0
LINE
5
418
8
0-0
6
CONTINUOUS
62
  7
10
1159.688
20
1146.557
30
0.0
11
1159.688
21
1271.842
31
0.0
0
LINE
5
419
8
0-0
6
CONTINUOUS
62
  7
10
1159.688
20
1221.002
30
0.0
11
899.688
21
1221.002
31
0.0
0
LINE
5
41a
8
0-0
6
CONTINUOUS
62
  7
10
1159.688
20
1146.557
30
0.0
11
1159.688
21
1221.002
31
0.0
0
LINE
5
41b
8
0-0
6
CONTINUOUS
62
  7
10
899.688
20
1146.557
30
0.0
11
899.688
21
1221.002
31
0.0
0
LINE
5
41c
8
0-0
6
CONTINUOUS
62
  7
10
899.688
20
1221.002
30
0.0
11
854.688
21
1221.002
31
0.0
0
LINE
5
41d
8
0-0
6
CONTINUOUS
62
  7
10
854.688
20
1146.557
30
0.0
11
854.688
21
1221.002
31
0.0
0
LINE
5
41e
8
0-0
6
CONTINUOUS
62
  7
10
1257.002
20
807.176
30
0.0
11
1257.002
21
837.176
31
0.0
0
LINE
5
41f
8
0-0
6
CONTINUOUS
62
  7
10
1202.531
20
807.176
30
0.0
11
1257.002
21
807.176
31
0.0
0
LINE
5
420
8
0-0
6
CONTINUOUS
62
  7
10
1202.531
20
837.176
30
0.0
11
1257.002
21
837.176
31
0.0
0
LINE
5
421
8
0-0
6
CONTINUOUS
62
  7
10
1257.002
20
837.176
30
0.0
11
1257.002
21
1112.176
31
0.0
0
LINE
5
422
8
0-0
6
CONTINUOUS
62
  7
10
1202.531
20
1112.176
30
0.0
11
1257.002
21
1112.176
31
0.0
0
LINE
5
423
8
0-0
6
CONTINUOUS
62
  7
10
883.047
20
454.433
30
0.0
11
854.688
21
438.309
31
0.0
0
LINE
5
424
8
0-0
6
CONTINUOUS
62
  7
10
1152.741
20
440.022
30
0.0
11
1159.689
21
440.022
31
0.0
0
LINE
5
425
8
0-0
6
CONTINUOUS
62
  7
10
854.688
20
438.309
30
0.0
11
854.688
21
424.309
31
0.0
0
LINE
5
426
8
0-0
6
CONTINUOUS
62
  7
10
877.551
20
436.152
30
0.0
11
854.688
21
424.309
31
0.0
0
LINE
5
427
8
0-0
6
CONTINUOUS
62
  7
10
1159.689
20
440.022
30
0.0
11
1159.689
21
424.116
31
0.0
0
LINE
5
428
8
0-0
6
CONTINUOUS
62
  7
10
1159.689
20
440.022
30
0.0
11
1159.689
21
424.116
31
0.0
0
LINE
5
429
8
ADD_LINE
6
HIDDEN
62
  3
10
854.688
20
438.309
30
0.0
11
854.688
21
493.612
31
0.0
0
LINE
5
42a
8
0-0
6
CONTINUOUS
62
  7
10
854.688
20
565.077
30
0.0
11
1159.689
21
565.077
31
0.0
0
LINE
5
42b
8
0-0
6
CONTINUOUS
62
  7
10
854.688
20
493.075
30
0.0
11
854.688
21
565.077
31
0.0
0
LINE
5
42c
8
0-0
6
CONTINUOUS
62
  7
10
1159.689
20
493.075
30
0.0
11
1159.689
21
565.077
31
0.0
0
LINE
5
42d
8
ADD_LINE
6
HIDDEN
62
  7
10
1119.688
20
493.075
30
0.0
11
1119.688
21
565.077
31
0.0
0
LINE
5
42e
8
0-0
6
CONTINUOUS
62
  7
10
854.688
20
529.076
30
0.0
11
1119.688
21
529.076
31
0.0
0
LINE
5
42f
8
0-0
6
CONTINUOUS
62
  7
10
854.688
20
493.075
30
0.0
11
854.688
21
529.076
31
0.0
0
LINE
5
430
8
0-0
6
CONTINUOUS
62
  7
10
1119.688
20
493.075
30
0.0
11
1119.688
21
529.076
31
0.0
0
LINE
5
431
8
ADD_LINE
6
HIDDEN
62
  3
10
1041.892
20
397.297
30
0.0
11
1110.967
21
397.297
31
0.0
0
LINE
5
432
8
ADD_LINE
6
HIDDEN
62
  3
10
1041.890
20
397.297
30
0.0
11
969.670
21
397.297
31
0.0
0
LINE
5
433
8
ADD_LINE
6
HIDDEN
62
  3
10
1041.892
20
388.234
30
0.0
11
1041.892
21
455.487
31
0.0
0
LINE
5
434
8
ADD_LINE
6
HIDDEN
62
  3
10
854.688
20
438.309
30
0.0
11
850.932
21
438.309
31
0.0
0
LINE
5
435
8
ADD_LINE
6
HIDDEN
62
  3
10
854.688
20
438.309
30
0.0
11
858.242
21
438.309
31
0.0
0
LINE
5
436
8
ADD_LINE
6
HIDDEN
62
  3
10
858.242
20
438.309
30
0.0
11
860.813
21
438.309
31
0.0
0
LINE
5
437
8
ADD_LINE
6
HIDDEN
62
  3
10
1119.688
20
438.309
30
0.0
11
1119.688
21
493.612
31
0.0
0
LINE
5
438
8
ADD_LINE
6
HIDDEN
62
  3
10
1119.688
20
438.309
30
0.0
11
1115.932
21
438.309
31
0.0
0
LINE
5
439
8
ADD_LINE
6
HIDDEN
62
  3
10
1119.688
20
438.309
30
0.0
11
1123.242
21
438.309
31
0.0
0
LINE
5
43a
8
ADD_LINE
6
HIDDEN
62
  3
10
1123.242
20
438.309
30
0.0
11
1125.813
21
438.309
31
0.0
0
LINE
5
43b
8
ADD_LINE
6
HIDDEN
62
  3
10
1119.688
20
438.309
30
0.0
11
1119.688
21
415.641
31
0.0
0
LINE
5
43c
8
ADD_LINE
6
HIDDEN
62
  3
10
850.932
20
438.309
30
0.0
11
849.300
21
438.309
31
0.0
0
LINE
5
43d
8
ADD_LINE
6
HIDDEN
62
  3
10
1108.932
20
438.309
30
0.0
11
1130.120
21
438.309
31
0.0
0
CIRCLE
5
43e
8
0-0
6
CONTINUOUS
62
  7
10
959.688
20
1092.176
30
0.0
40
3.000
0
ARC
5
43f
8
0-0
6
CONTINUOUS
62
  7
10
1360.797
20
815.176
30
0.0
40
8.000
50
180.000000
51
270.000000
0
ARC
5
440
8
0-0
6
CONTINUOUS
62
  7
10
1409.797
20
815.176
30
0.0
40
8.000
50
180.000000
51
270.000000
0
ARC
5
441
8
0-0
6
CONTINUOUS
62
  7
10
892.246
20
442.191
30
0.0
40
15.314
50
42.690552
51
126.920761
0
ARC
5
442
8
0-0
6
CONTINUOUS
62
  7
10
891.312
20
417.559
30
0.0
40
23.132
50
47.123047
51
126.507172
0
ARC
5
443
8
0-0
6
CONTINUOUS
62
  7
10
1042.341
20
665.627
30
0.0
40
254.299
50
236.909088
51
297.481079
0
ARC
5
444
8
0-0
6
CONTINUOUS
62
  7
10
1043.040
20
664.364
30
0.0
40
267.069
50
239.390030
51
295.898193
0
CIRCLE
5
445
8
ADD_LINE
6
HIDDEN
62
  3
10
1041.890
20
397.297
30
0.0
40
3.000
0
CIRCLE
5
446
8
ADD_LINE
6
HIDDEN
62
  3
10
854.688
20
438.309
30
0.0
40
3.000
0
CIRCLE
5
447
8
ADD_LINE
6
HIDDEN
62
  3
10
1119.688
20
438.309
30
0.0
40
3.000
0
CIRCLE
5
448
8
ADD_LINE
6
HIDDEN
62
  3
10
1119.688
20
438.309
30
0.0
40
3.000
0
ARC
5
449
8
0-0
6
CONTINUOUS
62
  7
10
1147.829
20
439.653
30
0.0
40
4.927
50
298.849731
51
4.301971
0
TEXT
5
44a
100
AcDbEntity
8
0-0
62
4
100
AcDbText
10
717.057
20
950.301
30
0.0
40
9.750
41
0.800
50
90.000
1
305
100
AcDbText
0
TEXT
5
44b
100
AcDbEntity
8
0-0
62
4
100
AcDbText
10
750.451
20
930.301
30
0.0
40
9.750
41
0.800
50
90.000
1
265
100
AcDbText
0
TEXT
5
44c
100
AcDbEntity
8
0-0
62
4
100
AcDbText
10
750.451
20
1085.926
30
0.0
40
9.750
41
0.800
50
90.000
1
40
100
AcDbText
0
TEXT
5
44d
100
AcDbEntity
8
0-0
62
4
100
AcDbText
10
997.813
20
712.001
30
0.0
40
9.750
41
0.800
50
0.000
1
305
100
AcDbText
0
TEXT
5
44e
100
AcDbEntity
8
0-0
62
4
100
AcDbText
10
977.813
20
743.009
30
0.0
40
9.750
41
0.800
50
0.000
1
265
100
AcDbText
0
TEXT
5
44f
100
AcDbEntity
8
0-0
62
4
100
AcDbText
10
1133.438
20
743.009
30
0.0
40
9.750
41
0.800
50
0.000
1
40
100
AcDbText
0
TEXT
5
450
100
AcDbEntity
8
0-0
62
4
100
AcDbText
10
1540.837
20
950.301
30
0.0
40
9.750
41
0.800
50
90.000
1
305
100
AcDbText
0
TEXT
5
451
100
AcDbEntity
8
0-0
62
4
100
AcDbText
10
997.813
20
1274.342
30
0.0
40
9.750
41
0.800
50
0.000
1
305
100
AcDbText
0
TEXT
5
452
100
AcDbEntity
8
0-0
62
4
100
AcDbText
10
1020.313
20
1223.502
30
0.0
40
9.750
41
0.800
50
0.000
1
260
100
AcDbText
0
TEXT
5
453
100
AcDbEntity
8
0-0
62
4
100
AcDbText
10
870.938
20
1223.502
30
0.0
40
9.750
41
0.800
50
0.000
1
45
100
AcDbText
0
TEXT
5
454
100
AcDbEntity
8
0-0
62
4
100
AcDbText
10
1254.502
20
815.926
30
0.0
40
9.750
41
0.800
50
90.000
1
30
100
AcDbText
0
TEXT
5
455
100
AcDbEntity
8
0-0
62
4
100
AcDbText
10
1254.502
20
965.301
30
0.0
40
9.750
41
0.800
50
90.000
1
275
100
AcDbText
0
TEXT
5
456
100
AcDbEntity
8
0-0
62
4
100
AcDbText
10
997.814
20
567.577
30
0.0
40
9.750
41
0.800
50
0.000
1
305
100
AcDbText
0
TEXT
5
457
100
AcDbEntity
8
0-0
62
4
100
AcDbText
10
977.813
20
531.576
30
0.0
40
9.750
41
0.800
50
0.000
1
265
100
AcDbText
0
POINT
5
458
8
0-0
62
  7
10
719.557
20
807.176
30
0.0
0
POINT
5
459
8
0-0
62
  7
10
719.557
20
1112.176
30
0.0
0
POINT
5
45a
8
0-0
62
  7
10
752.951
20
807.176
30
0.0
0
POINT
5
45b
8
0-0
62
  7
10
752.951
20
1072.176
30
0.0
0
POINT
5
45c
8
0-0
62
  7
10
752.951
20
1112.176
30
0.0
0
POINT
5
45d
8
0-0
62
  7
10
854.688
20
709.501
30
0.0
0
POINT
5
45e
8
0-0
62
  7
10
1159.688
20
709.501
30
0.0
0
POINT
5
45f
8
0-0
62
  7
10
854.688
20
740.509
30
0.0
0
POINT
5
460
8
0-0
62
  7
10
1119.688
20
740.509
30
0.0
0
POINT
5
461
8
0-0
62
  7
10
1159.688
20
740.509
30
0.0
0
POINT
5
462
8
0-0
62
  7
10
1543.337
20
807.176
30
0.0
0
POINT
5
463
8
0-0
62
  7
10
1543.337
20
1112.176
30
0.0
0
POINT
5
464
8
0-0
62
  7
10
854.688
20
1271.842
30
0.0
0
POINT
5
465
8
0-0
62
  7
10
1159.688
20
1271.842
30
0.0
0
POINT
5
466
8
0-0
62
  7
10
1159.688
20
1221.002
30
0.0
0
POINT
5
467
8
0-0
62
  7
10
899.688
20
1221.002
30
0.0
0
POINT
5
468
8
0-0
62
  7
10
854.688
20
1221.002
30
0.0
0
POINT
5
469
8
0-0
62
  7
10
1257.002
20
807.176
30
0.0
0
POINT
5
46a
8
0-0
62
  7
10
1257.002
20
837.176
30
0.0
0
POINT
5
46b
8
0-0
62
  7
10
1257.002
20
1112.176
30
0.0
0
POINT
5
46c
8
0-0
62
  7
10
854.688
20
565.077
30
0.0
0
POINT
5
46d
8
0-0
62
  7
10
1159.689
20
565.077
30
0.0
0
POINT
5
46e
8
0-0
62
  7
10
854.688
20
529.076
30
0.0
0
POINT
5
46f
8
0-0
62
  7
10
1119.688
20
529.076
30
0.0
0
ENDSEC
0
EOF
