0
SECTION
2
HEADER
  9
$EXTMIN
10
0
20
0
30
0
  9
$EXTMAX
10
1614.606
20
1217.719
30
0
  9
$LTSCALE
40
5.000
  9
$DIMSCALE
40
5.000
  9
$PDMODE
70
0
  9
$PDSIZE
40
40
0
ENDSEC
0
SECTION
2
TABLES
0
TABLE
2
LTYPE
70
9
0
LTYPE
5
1f4
2
CONTINUOUS
70
0
3
実線
72
65
73
0
40
0.0
0
LTYPE
5
1f5
2
DOT
70
0
3
--  --  --  --  --  --  --  --     
72
65
73
2
40
5.000
49
1.000
49
-4.000
0
LTYPE
5
1f6
2
DASHED
70
0
3
----    ----    ----    ----    
72
65
73
2
40
5.000
49
2.000
49
-3.000
0
LTYPE
5
1f7
2
DASHED2
70
0
3
------  ------  ------  ------ 
72
65
73
2
40
10.000
49
4.000
49
-6.000
0
LTYPE
5
1f8
2
CENTER
70
0
3
----- - ----- - ----- - ----- - 
72
65
73
4
40
9.000
49
6.000
49
-1.000
49
1.000
49
-1.000
0
LTYPE
5
1f9
2
CENTER2
70
0
3
----------  --  ----------  -- 
72
65
73
4
40
18.000
49
12.000
49
-2.000
49
2.000
49
-2.000
0
LTYPE
5
1fa
2
PHANTOM
70
0
3
--- - - --- - - --- - - --- - -
72
65
73
6
40
10.000
49
5.000
49
-1.000
49
1.000
49
-1.000
49
1.000
49
-1.000
0
LTYPE
5
1fb
2
PHANTOM2
70
0
3
--------  -  -  --------  -  -
72
65
73
6
40
16.000
49
6.000
49
-2.000
49
2.000
49
-2.000
49
2.000
49
-2.000
0
LTYPE
5
1fc
2
HIDDEN
70
0
3
-   -   -   -   -   -   -   -   
72
65
73
2
40
2.500
49
0.500
49
-2.000
0
ENDTAB
0
TABLE
2
STYLE
70
1
0
STYLE
5
1fd
100
AcDbSymbolTableRecord
100
AcDbTextStyleTableRecord
2
STANDARD
70
0
40
0.0
41
1.0
50
0.0
71
0
42
0.0
3
txt.shx
4
extfont.shx
0
STYLE
5
1fe
100
AcDbSymbolTableRecord
100
AcDbTextStyleTableRecord
2
TATEGAKI
70
4
40
0.0
41
1.0
50
0.0
71
0
42
0.0
3
txt.shx
4
extfont.shx
0
STYLE
5
1ff
100
AcDbSymbolTableRecord
100
AcDbTextStyleTableRecord
2
MT
70
0
40
0.0
41
1.0
50
0.0
71
0
42
0.0
3
MS Mincho
4

0
STYLE
5
200
100
AcDbSymbolTableRecord
100
AcDbTextStyleTableRecord
2
TMT
70
4
40
0.0
41
1.0
50
0.0
71
0
42
0.0
3
@MS Mincho
4

0
ENDTAB
0
TABLE
2
LAYER
5
100e
100
AcDbSymbolTable
70
10
0
LAYER
5
100f
100
AcDbSymbolTableRecord
100
AcDbLayerTableRecord
2
0
70
64
62
  7
  6
CONTINUOUS
0
LAYER
5
1010
100
AcDbSymbolTableRecord
100
AcDbLayerTableRecord
2
0-0
70
64
62
  7
  6
CONTINUOUS
0
LAYER
5
1011
100
AcDbSymbolTableRecord
100
AcDbLayerTableRecord
2
ADD_LINE
70
64
62
  -7
  6
CONTINUOUS
0
ENDTAB
0
ENDSEC
0
SECTION
2
ENTITIES
0
LINE
5
1012
8
0-0
6
CONTINUOUS
62
  7
10
1202.107
20
426.105
30
0.0
11
1209.055
21
426.105
31
0.0
0
LINE
5
1013
8
0-0
6
CONTINUOUS
62
  7
10
1209.055
20
426.105
30
0.0
11
1209.055
21
410.199
31
0.0
0
LINE
5
1014
8
0-0
6
CONTINUOUS
62
  7
10
904.054
20
551.160
30
0.0
11
1209.055
21
551.160
31
0.0
0
LINE
5
1015
8
0-0
6
CONTINUOUS
62
  7
10
904.054
20
479.158
30
0.0
11
904.054
21
551.160
31
0.0
0
LINE
5
1016
8
0-0
6
CONTINUOUS
62
  7
10
1209.055
20
479.158
30
0.0
11
1209.055
21
551.160
31
0.0
0
LINE
5
1017
8
0-0
6
CONTINUOUS
62
  7
10
904.054
20
515.159
30
0.0
11
1169.054
21
515.159
31
0.0
0
LINE
5
1018
8
0-0
6
CONTINUOUS
62
  7
10
904.054
20
479.158
30
0.0
11
904.054
21
515.159
31
0.0
0
LINE
5
1019
8
0-0
6
CONTINUOUS
62
  7
10
1169.054
20
479.158
30
0.0
11
1169.054
21
515.159
31
0.0
0
LINE
5
101a
8
0-0
6
CONTINUOUS
62
  7
10
949.054
20
1055.553
30
0.0
11
1209.054
21
1055.553
31
0.0
0
LINE
5
101b
8
0-0
6
CONTINUOUS
62
  7
10
949.054
20
1015.554
30
0.0
11
949.054
21
1055.553
31
0.0
0
LINE
5
101c
8
0-0
6
CONTINUOUS
62
  7
10
904.054
20
1015.554
30
0.0
11
949.054
21
1015.554
31
0.0
0
LINE
5
101d
8
0-0
6
CONTINUOUS
62
  7
10
974.054
20
1047.553
30
0.0
11
974.054
21
1055.553
31
0.0
0
LINE
5
101e
8
0-0
6
CONTINUOUS
62
  7
10
974.054
20
1047.553
30
0.0
11
1201.054
21
1047.553
31
0.0
0
LINE
5
101f
8
0-0
6
CONTINUOUS
62
  7
10
1408.162
20
1055.553
30
0.0
11
1408.162
21
1015.554
31
0.0
0
LINE
5
1020
8
0-0
6
CONTINUOUS
62
  7
10
904.054
20
1215.219
30
0.0
11
1209.054
21
1215.219
31
0.0
0
LINE
5
1021
8
0-0
6
CONTINUOUS
62
  7
10
904.054
20
1089.935
30
0.0
11
904.054
21
1215.219
31
0.0
0
LINE
5
1022
8
0-0
6
CONTINUOUS
62
  7
10
1209.054
20
1089.935
30
0.0
11
1209.054
21
1215.219
31
0.0
0
LINE
5
1023
8
0-0
6
CONTINUOUS
62
  7
10
1209.054
20
1164.379
30
0.0
11
949.054
21
1164.379
31
0.0
0
LINE
5
1024
8
0-0
6
CONTINUOUS
62
  7
10
1209.054
20
1089.935
30
0.0
11
1209.054
21
1164.379
31
0.0
0
LINE
5
1025
8
0-0
6
CONTINUOUS
62
  7
10
949.054
20
1089.935
30
0.0
11
949.054
21
1164.379
31
0.0
0
LINE
5
1026
8
0-0
6
CONTINUOUS
62
  7
10
949.054
20
1164.379
30
0.0
11
904.054
21
1164.379
31
0.0
0
LINE
5
1027
8
0-0
6
CONTINUOUS
62
  7
10
904.054
20
1089.935
30
0.0
11
904.054
21
1164.379
31
0.0
0
LINE
5
1028
8
ADD_LINE
6
HIDDEN
62
  3
10
944.054
20
818.519
30
0.0
11
944.054
21
676.299
31
0.0
0
LINE
5
1029
8
0-0
6
CONTINUOUS
62
  7
10
989.054
20
760.553
30
0.0
11
1209.054
21
760.553
31
0.0
0
LINE
5
102a
8
0-0
6
CONTINUOUS
62
  7
10
1209.055
20
426.105
30
0.0
11
1209.055
21
390.182
31
0.0
0
LINE
5
102b
8
0-0
6
CONTINUOUS
62
  7
10
1451.162
20
758.261
30
0.0
11
1399.300
21
767.406
31
0.0
0
LINE
5
102c
8
0-0
6
CONTINUOUS
62
  7
10
1451.162
20
758.261
30
0.0
11
1483.226
21
752.608
31
0.0
0
LINE
5
102d
8
0-0
6
CONTINUOUS
62
  7
10
1392.162
20
754.449
30
0.0
11
1480.795
21
738.820
31
0.0
0
LINE
5
102e
8
0-0
6
CONTINUOUS
62
  7
10
1483.226
20
752.608
30
0.0
11
1480.795
21
738.820
31
0.0
0
LINE
5
102f
8
0-0
6
CONTINUOUS
62
  7
10
1477.162
20
767.893
30
0.0
11
1474.731
21
754.105
31
0.0
0
LINE
5
1030
8
0-0
6
CONTINUOUS
62
  7
10
1434.163
20
1055.553
30
0.0
11
1434.163
21
1047.553
31
0.0
0
LINE
5
1031
8
0-0
6
CONTINUOUS
62
  7
10
1408.162
20
1047.553
30
0.0
11
1438.162
21
1047.553
31
0.0
0
LINE
5
1032
8
0-0
6
CONTINUOUS
62
  7
10
1202.107
20
426.105
30
0.0
11
1209.054
21
426.105
31
0.0
0
LINE
5
1033
8
0-0
6
CONTINUOUS
62
  7
10
1209.054
20
426.105
30
0.0
11
1209.054
21
410.199
31
0.0
0
LINE
5
1034
8
0-0
6
CONTINUOUS
62
  7
10
1209.054
20
426.105
30
0.0
11
1209.054
21
410.199
31
0.0
0
LINE
5
1035
8
ADD_LINE
6
HIDDEN
62
  3
10
1091.256
20
387.066
30
0.0
11
1091.256
21
385.041
31
0.0
0
LINE
5
1036
8
ADD_LINE
6
HIDDEN
62
  3
10
1091.258
20
383.380
30
0.0
11
1070.607
21
383.380
31
0.0
0
LINE
5
1037
8
ADD_LINE
6
HIDDEN
62
  3
10
1091.258
20
383.380
30
0.0
11
1109.618
21
383.380
31
0.0
0
LINE
5
1038
8
0-0
6
CONTINUOUS
62
  7
10
1010.055
20
399.460
30
0.0
11
1010.055
21
370.866
31
0.0
0
LINE
5
1039
8
0-0
6
CONTINUOUS
62
  7
10
1134.054
20
390.852
30
0.0
11
1134.054
21
369.587
31
0.0
0
LINE
5
103a
8
0-0
6
CONTINUOUS
62
  7
10
1013.055
20
397.221
30
0.0
11
1013.055
21
371.217
31
0.0
0
LINE
5
103b
8
0-0
6
CONTINUOUS
62
  7
10
1131.054
20
389.178
30
0.0
11
1131.054
21
369.989
31
0.0
0
LINE
5
103c
8
0-0
6
CONTINUOUS
62
  7
10
1130.554
20
388.571
30
0.0
11
1130.554
21
370.391
31
0.0
0
LINE
5
103d
8
0-0
6
CONTINUOUS
62
  7
10
1013.555
20
396.523
30
0.0
11
1013.555
21
371.611
31
0.0
0
LINE
5
103e
8
ADD_LINE
6
HIDDEN
62
  3
10
933.439
20
409.459
30
0.0
11
885.620
21
409.459
31
0.0
0
LINE
5
103f
8
ADD_LINE
6
HIDDEN
62
  3
10
904.054
20
442.192
30
0.0
11
904.054
21
389.567
31
0.0
0
LINE
5
1040
8
0-0
6
CONTINUOUS
62
  7
10
1209.054
20
760.553
30
0.0
11
1209.054
21
1055.553
31
0.0
0
LINE
5
1041
8
0-0
6
CONTINUOUS
62
  7
10
904.054
20
760.553
30
0.0
11
904.054
21
1015.554
31
0.0
0
LINE
5
1042
8
0-0
6
CONTINUOUS
62
  7
10
1209.054
20
785.553
30
0.0
11
1184.054
21
760.553
31
0.0
0
LINE
5
1043
8
0-0
6
CONTINUOUS
62
  7
10
989.054
20
760.553
30
0.0
11
1209.054
21
760.553
31
0.0
0
LINE
5
1044
8
0-0
6
CONTINUOUS
62
  7
10
1201.054
20
815.553
30
0.0
11
1201.054
21
1047.553
31
0.0
0
LINE
5
1045
8
0-0
6
CONTINUOUS
62
  7
10
1201.054
20
815.553
30
0.0
11
1209.054
21
815.553
31
0.0
0
LINE
5
1046
8
0-0
6
CONTINUOUS
62
  7
10
989.054
20
760.553
30
0.0
11
989.054
21
748.553
31
0.0
0
LINE
5
1047
8
0-0
6
CONTINUOUS
62
  7
10
1438.162
20
760.553
30
0.0
11
1438.162
21
1047.553
31
0.0
0
LINE
5
1048
8
0-0
6
CONTINUOUS
62
  7
10
1402.162
20
783.142
30
0.0
11
1402.162
21
1015.554
31
0.0
0
LINE
5
1049
8
0-0
6
CONTINUOUS
62
  7
10
1455.162
20
771.772
30
0.0
11
1477.162
21
767.893
31
0.0
0
LINE
5
104a
8
0-0
6
CONTINUOUS
62
  7
10
1408.162
20
1055.553
30
0.0
11
1455.162
21
1055.553
31
0.0
0
LINE
5
104b
8
0-0
6
CONTINUOUS
62
  7
10
1455.162
20
771.772
30
0.0
11
1455.162
21
1055.553
31
0.0
0
LINE
5
104c
8
0-0
6
CONTINUOUS
62
  7
10
693.961
20
1055.553
30
0.0
11
693.961
21
760.553
31
0.0
0
LINE
5
104d
8
0-0
6
CONTINUOUS
62
  7
10
854.793
20
1055.553
30
0.0
11
693.961
21
1055.553
31
0.0
0
LINE
5
104e
8
0-0
6
CONTINUOUS
62
  7
10
854.793
20
760.553
30
0.0
11
693.961
21
760.553
31
0.0
0
LINE
5
104f
8
0-0
6
CONTINUOUS
62
  7
10
802.317
20
1055.553
30
0.0
11
802.317
21
1015.554
31
0.0
0
LINE
5
1050
8
0-0
6
CONTINUOUS
62
  7
10
854.793
20
1055.553
30
0.0
11
802.317
21
1055.553
31
0.0
0
LINE
5
1051
8
0-0
6
CONTINUOUS
62
  7
10
854.793
20
1015.554
30
0.0
11
802.317
21
1015.554
31
0.0
0
LINE
5
1052
8
0-0
6
CONTINUOUS
62
  7
10
1614.606
20
1055.553
30
0.0
11
1614.606
21
760.553
31
0.0
0
LINE
5
1053
8
0-0
6
CONTINUOUS
62
  7
10
1528.720
20
1055.553
30
0.0
11
1614.606
21
1055.553
31
0.0
0
LINE
5
1054
8
0-0
6
CONTINUOUS
62
  7
10
1528.720
20
760.553
30
0.0
11
1614.606
21
760.553
31
0.0
0
LINE
5
1055
8
0-0
6
CONTINUOUS
62
  7
10
1438.162
20
1164.379
30
0.0
11
1455.162
21
1164.379
31
0.0
0
LINE
5
1056
8
0-0
6
CONTINUOUS
62
  7
10
1438.162
20
1089.935
30
0.0
11
1438.162
21
1164.379
31
0.0
0
LINE
5
1057
8
0-0
6
CONTINUOUS
62
  7
10
1455.162
20
1089.935
30
0.0
11
1455.162
21
1164.379
31
0.0
0
LINE
5
1058
8
0-0
6
CONTINUOUS
62
  7
10
792.128
20
451.070
30
0.0
11
792.128
21
361.070
31
0.0
0
LINE
5
1059
8
0-0
6
CONTINUOUS
62
  7
10
846.826
20
451.070
30
0.0
11
792.128
21
451.070
31
0.0
0
LINE
5
105a
8
0-0
6
CONTINUOUS
62
  7
10
846.826
20
361.070
30
0.0
11
792.128
21
361.070
31
0.0
0
LINE
5
105b
8
ADD_LINE
6
HIDDEN
62
  3
10
1154.044
20
409.459
30
0.0
11
1182.356
21
409.459
31
0.0
0
LINE
5
105c
8
ADD_LINE
6
HIDDEN
62
  3
10
1169.054
20
420.834
30
0.0
11
1169.054
21
391.902
31
0.0
0
LINE
5
105d
8
0-0
6
CONTINUOUS
62
  7
10
1408.162
20
1015.554
30
0.0
11
1402.162
21
1015.554
31
0.0
0
CIRCLE
5
105e
8
0-0
6
CONTINUOUS
62
  7
10
954.054
20
840.553
30
0.0
40
3.000
0
CIRCLE
5
105f
8
0-0
6
CONTINUOUS
62
  7
10
954.054
20
860.553
30
0.0
40
3.000
0
CIRCLE
5
1060
8
0-0
6
CONTINUOUS
62
  7
10
944.054
20
406.070
30
0.0
40
45.000
0
CIRCLE
5
1061
8
ADD_LINE
6
HIDDEN
62
  3
10
1091.256
20
383.380
30
0.0
40
3.000
0
ARC
5
1062
8
0-0
6
CONTINUOUS
62
  7
10
1453.193
20
841.422
30
0.0
40
106.250
50
234.942276
51
285.057709
0
ARC
5
1063
8
0-0
6
CONTINUOUS
62
  7
10
1195.302
20
426.326
30
0.0
40
6.808
50
318.432068
51
358.142212
0
ARC
5
1064
8
0-0
6
CONTINUOUS
62
  7
10
1091.707
20
651.710
30
0.0
40
254.299
50
245.643051
51
297.481079
0
ARC
5
1065
8
0-0
6
CONTINUOUS
62
  7
10
1073.106
20
614.283
30
0.0
40
262.113
50
247.626801
51
301.242676
0
ARC
5
1066
8
0-0
6
CONTINUOUS
62
  7
10
1011.623
20
399.217
30
0.0
40
1.587
50
74.231583
51
171.199173
0
ARC
5
1067
8
0-0
6
CONTINUOUS
62
  7
10
1013.473
20
371.560
30
0.0
40
3.489
50
191.467834
51
245.999237
0
ARC
5
1068
8
0-0
6
CONTINUOUS
62
  7
10
1132.413
20
390.834
30
0.0
40
1.642
50
0.633621
51
102.605148
0
ARC
5
1069
8
0-0
6
CONTINUOUS
62
  7
10
1087.085
20
613.698
30
0.0
40
225.785
50
250.590851
51
281.488312
0
ARC
5
106a
8
0-0
6
CONTINUOUS
62
  7
10
1131.567
20
369.576
30
0.0
40
2.488
50
281.303345
51
0.242935
0
ARC
5
106b
8
0-0
6
CONTINUOUS
62
  7
10
1074.721
20
626.680
30
0.0
40
265.800
50
256.363342
51
282.456818
0
ARC
5
106c
8
0-0
6
CONTINUOUS
62
  7
10
1074.721
20
626.680
30
0.0
40
262.800
50
256.429016
51
282.378052
0
ARC
5
106d
8
0-0
6
CONTINUOUS
62
  7
10
1087.085
20
613.698
30
0.0
40
228.785
50
251.120239
51
281.080322
0
ARC
5
106e
8
0-0
6
CONTINUOUS
62
  7
10
1074.721
20
626.680
30
0.0
40
262.300
50
256.515015
51
282.290192
0
ARC
5
106f
8
0-0
6
CONTINUOUS
62
  7
10
1087.085
20
613.698
30
0.0
40
229.285
50
251.294937
51
280.928589
0
ARC
5
1070
8
0-0
6
CONTINUOUS
62
  7
10
1072.054
20
368.245
30
0.0
40
0.308
50
191.168747
51
348.831238
0
ARC
5
1071
8
0-0
6
CONTINUOUS
62
  7
10
1090.341
20
372.287
30
0.0
40
19.035
50
163.874359
51
192.462479
0
ARC
5
1072
8
0-0
6
CONTINUOUS
62
  7
10
1053.768
20
372.287
30
0.0
40
19.035
50
347.537537
51
376.125641
0
ARC
5
1073
8
0-0
6
CONTINUOUS
62
  7
10
1080.803
20
363.815
30
0.0
40
9.657
50
57.056473
51
149.776825
0
ARC
5
1074
8
0-0
6
CONTINUOUS
62
  7
10
1079.992
20
366.289
30
0.0
40
8.275
50
42.885696
51
151.999634
0
ARC
5
1075
8
0-0
6
CONTINUOUS
62
  7
10
1077.417
20
371.134
30
0.0
40
5.672
50
99.829773
51
146.282639
0
ARC
5
1076
8
0-0
6
CONTINUOUS
62
  7
10
1071.730
20
379.871
30
0.0
40
5.672
50
279.829407
51
326.282288
0
ARC
5
1077
8
0-0
6
CONTINUOUS
62
  7
10
1063.306
20
363.815
30
0.0
40
9.657
50
390.223175
51
482.943542
0
ARC
5
1078
8
0-0
6
CONTINUOUS
62
  7
10
1064.117
20
366.289
30
0.0
40
8.275
50
388.000366
51
497.114319
0
ARC
5
1079
8
0-0
6
CONTINUOUS
62
  7
10
1066.693
20
371.134
30
0.0
40
5.672
50
393.717346
51
440.170227
0
ARC
5
107a
8
0-0
6
CONTINUOUS
62
  7
10
1072.379
20
379.871
30
0.0
40
5.672
50
213.717712
51
260.170593
0
CIRCLE
5
107b
8
0-0
6
CONTINUOUS
62
  7
10
1082.054
20
367.757
30
0.0
40
0.940
0
ARC
5
107c
8
0-0
6
CONTINUOUS
62
  7
10
1097.911
20
377.883
30
0.0
40
3.898
50
328.636292
51
71.074326
0
ARC
5
107d
8
0-0
6
CONTINUOUS
62
  7
10
1097.810
20
377.586
30
0.0
40
4.211
50
71.074631
51
136.999283
0
ARC
5
107e
8
0-0
6
CONTINUOUS
62
  7
10
1113.533
20
374.853
30
0.0
40
3.803
50
206.521713
51
79.828934
0
ARC
5
107f
8
0-0
6
CONTINUOUS
62
  7
10
1096.918
20
378.172
30
0.0
40
3.164
50
22.679138
51
133.741043
0
ARC
5
1080
8
0-0
6
CONTINUOUS
62
  7
10
1094.956
20
377.352
30
0.0
40
5.291
50
334.384155
51
22.679184
0
ARC
5
1081
8
0-0
6
CONTINUOUS
62
  7
10
1113.583
20
356.234
30
0.0
40
22.126
50
109.266510
51
135.068024
0
ARC
5
1082
8
0-0
6
CONTINUOUS
62
  7
10
1110.781
20
363.291
30
0.0
40
15.510
50
108.049957
51
130.113876
0
ARC
5
1083
8
0-0
6
CONTINUOUS
62
  7
10
1111.052
20
364.172
30
0.0
40
14.765
50
77.672256
51
110.109558
0
ARC
5
1084
8
0-0
6
CONTINUOUS
62
  7
10
1110.613
20
364.731
30
0.0
40
13.125
50
82.786819
51
109.266510
0
ARC
5
1085
8
0-0
6
CONTINUOUS
62
  7
10
1112.203
20
374.645
30
0.0
40
3.107
50
344.536133
51
88.931183
0
ARC
5
1086
8
0-0
6
CONTINUOUS
62
  7
10
1112.524
20
374.556
30
0.0
40
2.774
50
210.336823
51
344.535950
0
ARC
5
1087
8
0-0
6
CONTINUOUS
62
  7
10
1113.621
20
387.824
30
0.0
40
9.392
50
276.288391
51
336.024231
0
ARC
5
1088
8
0-0
6
CONTINUOUS
62
  7
10
1116.262
20
383.580
30
0.0
40
5.956
50
268.797913
51
4.116562
0
ARC
5
1089
8
0-0
6
CONTINUOUS
62
  7
10
1121.107
20
379.769
30
0.0
40
4.379
50
31.617386
51
75.505051
0
ARC
5
108a
8
0-0
6
CONTINUOUS
62
  7
10
1123.359
20
382.819
30
0.0
40
1.658
50
332.936035
51
134.186981
0
ARC
5
108b
8
0-0
6
CONTINUOUS
62
  7
10
1121.069
20
381.176
30
0.0
40
3.050
50
68.178955
51
124.099670
0
ARC
5
108c
8
0-0
6
CONTINUOUS
62
  7
10
1120.813
20
383.558
30
0.0
40
1.461
50
17.941299
51
174.337448
0
ARC
5
108d
8
0-0
6
CONTINUOUS
62
  7
10
1086.024
20
385.128
30
0.0
40
17.819
50
260.152771
51
328.635925
0
ARC
5
108e
8
0-0
6
CONTINUOUS
62
  7
10
1084.891
20
385.921
30
0.0
40
18.384
50
264.056396
51
323.807129
0
CIRCLE
5
108f
8
0-0
6
CONTINUOUS
62
  7
10
1062.049
20
367.778
30
0.0
40
0.940
0
ARC
5
1090
8
0-0
6
CONTINUOUS
62
  7
10
1046.937
20
378.985
30
0.0
40
3.898
50
464.925659
51
207.363693
0
ARC
5
1091
8
0-0
6
CONTINUOUS
62
  7
10
1047.018
20
378.683
30
0.0
40
4.211
50
399.000732
51
464.925354
0
ARC
5
1092
8
0-0
6
CONTINUOUS
62
  7
10
1031.142
20
377.053
30
0.0
40
3.803
50
456.171082
51
329.478271
0
ARC
5
1093
8
0-0
6
CONTINUOUS
62
  7
10
1047.948
20
379.205
30
0.0
40
3.164
50
402.258972
51
513.320862
0
ARC
5
1094
8
0-0
6
CONTINUOUS
62
  7
10
1049.848
20
378.250
30
0.0
40
5.291
50
513.320801
51
201.615860
0
ARC
5
1095
8
0-0
6
CONTINUOUS
62
  7
10
1029.794
20
358.482
30
0.0
40
22.126
50
400.931976
51
426.733490
0
ARC
5
1096
8
0-0
6
CONTINUOUS
62
  7
10
1033.080
20
365.327
30
0.0
40
15.510
50
405.886108
51
427.950043
0
ARC
5
1097
8
0-0
6
CONTINUOUS
62
  7
10
1032.872
20
366.225
30
0.0
40
14.765
50
425.890442
51
458.327759
0
ARC
5
1098
8
0-0
6
CONTINUOUS
62
  7
10
1033.349
20
366.752
30
0.0
40
13.125
50
426.733490
51
453.213196
0
ARC
5
1099
8
0-0
6
CONTINUOUS
62
  7
10
1032.455
20
376.753
30
0.0
40
3.107
50
447.068817
51
191.463852
0
ARC
5
109a
8
0-0
6
CONTINUOUS
62
  7
10
1032.128
20
376.686
30
0.0
40
2.774
50
191.464066
51
325.663177
0
ARC
5
109b
8
0-0
6
CONTINUOUS
62
  7
10
1031.959
20
389.999
30
0.0
40
9.392
50
199.975769
51
259.711609
0
ARC
5
109c
8
0-0
6
CONTINUOUS
62
  7
10
1029.029
20
385.949
30
0.0
40
5.956
50
531.883423
51
267.202087
0
ARC
5
109d
8
0-0
6
CONTINUOUS
62
  7
10
1023.930
20
382.485
30
0.0
40
4.379
50
460.494934
51
504.382629
0
ARC
5
109e
8
0-0
6
CONTINUOUS
62
  7
10
1021.896
20
385.685
30
0.0
40
1.658
50
401.813019
51
203.063965
0
ARC
5
109f
8
0-0
6
CONTINUOUS
62
  7
10
1024.066
20
383.886
30
0.0
40
3.050
50
411.900330
51
467.821045
0
ARC
5
10a0
8
0-0
6
CONTINUOUS
62
  7
10
1024.487
20
386.244
30
0.0
40
1.461
50
361.662537
51
518.058716
0
ARC
5
10a1
8
0-0
6
CONTINUOUS
62
  7
10
1059.301
20
385.384
30
0.0
40
17.819
50
207.364059
51
275.847229
0
ARC
5
10a2
8
0-0
6
CONTINUOUS
62
  7
10
1060.487
20
386.095
30
0.0
40
18.384
50
212.192886
51
271.943604
0
CIRCLE
5
10a3
8
ADD_LINE
6
HIDDEN
62
  3
10
904.054
20
409.459
30
0.0
40
3.000
0
CIRCLE
5
10a4
8
0-0
6
CONTINUOUS
62
  7
10
1019.054
20
1035.553
30
0.0
40
3.000
0
CIRCLE
5
10a5
8
0-0
6
CONTINUOUS
62
  7
10
1129.054
20
1035.553
30
0.0
40
3.000
0
ARC
5
10a6
8
0-0
6
CONTINUOUS
62
  7
10
944.616
20
842.276
30
0.0
40
103.724
50
244.632156
51
295.367859
0
ARC
5
10a7
8
0-0
6
CONTINUOUS
62
  7
10
866.897
20
765.931
30
0.0
40
37.544
50
332.428406
51
351.765076
0
ARC
5
10a8
8
0-0
6
CONTINUOUS
62
  7
10
1354.371
20
783.708
30
0.0
40
47.794
50
322.251129
51
359.321442
0
CIRCLE
5
10a9
8
ADD_LINE
6
HIDDEN
62
  3
10
1169.054
20
409.459
30
0.0
40
3.000
0
TEXT
5
10aa
100
AcDbEntity
8
0-0
62
7
100
AcDbText
10
1047.179
20
553.660
30
0.0
40
9.750
41
0.800
50
0.000
1
305
100
AcDbText
0
TEXT
5
10ab
100
AcDbEntity
8
0-0
62
7
100
AcDbText
10
1027.179
20
517.659
30
0.0
40
9.750
41
0.800
50
0.000
1
265
100
AcDbText
0
TEXT
5
10ac
100
AcDbEntity
8
0-0
62
7
100
AcDbText
10
1047.179
20
1217.719
30
0.0
40
9.750
41
0.800
50
0.000
1
305
100
AcDbText
0
TEXT
5
10ad
100
AcDbEntity
8
0-0
62
7
100
AcDbText
10
1069.679
20
1166.879
30
0.0
40
9.750
41
0.800
50
0.000
1
260
100
AcDbText
0
TEXT
5
10ae
100
AcDbEntity
8
0-0
62
7
100
AcDbText
10
920.304
20
1166.879
30
0.0
40
9.750
41
0.800
50
0.000
1
45
100
AcDbText
0
TEXT
5
10af
100
AcDbEntity
8
0-0
62
7
100
AcDbText
10
691.460
20
898.678
30
0.0
40
9.750
41
0.800
50
90.000
1
295
100
AcDbText
0
TEXT
5
10b0
100
AcDbEntity
8
0-0
62
7
100
AcDbText
10
799.817
20
1029.304
30
0.0
40
9.750
41
0.800
50
90.000
1
40
100
AcDbText
0
TEXT
5
10b1
100
AcDbEntity
8
0-0
62
7
100
AcDbText
10
1612.106
20
898.678
30
0.0
40
9.750
41
0.800
50
90.000
1
295
100
AcDbText
0
TEXT
5
10b2
100
AcDbEntity
8
0-0
62
7
100
AcDbText
10
1440.412
20
1166.879
30
0.0
40
9.750
41
0.800
50
0.000
1
17
100
AcDbText
0
TEXT
5
10b3
100
AcDbEntity
8
0-0
62
7
100
AcDbText
10
789.628
20
399.820
30
0.0
40
9.750
41
0.800
50
90.000
1
90
100
AcDbText
0
POINT
5
10b4
8
0-0
62
  7
10
904.054
20
551.160
30
0.0
0
POINT
5
10b5
8
0-0
62
  7
10
1209.055
20
551.160
30
0.0
0
POINT
5
10b6
8
0-0
62
  7
10
904.054
20
515.159
30
0.0
0
POINT
5
10b7
8
0-0
62
  7
10
1169.054
20
515.159
30
0.0
0
POINT
5
10b8
8
0-0
62
  7
10
904.054
20
1215.219
30
0.0
0
POINT
5
10b9
8
0-0
62
  7
10
1209.054
20
1215.219
30
0.0
0
POINT
5
10ba
8
0-0
62
  7
10
1209.054
20
1164.379
30
0.0
0
POINT
5
10bb
8
0-0
62
  7
10
949.054
20
1164.379
30
0.0
0
POINT
5
10bc
8
0-0
62
  7
10
904.054
20
1164.379
30
0.0
0
POINT
5
10bd
8
0-0
62
  7
10
693.961
20
1055.553
30
0.0
0
POINT
5
10be
8
0-0
62
  7
10
693.961
20
760.553
30
0.0
0
POINT
5
10bf
8
0-0
62
  7
10
802.317
20
1055.553
30
0.0
0
POINT
5
10c0
8
0-0
62
  7
10
802.317
20
1015.554
30
0.0
0
POINT
5
10c1
8
0-0
62
  7
10
1614.606
20
1055.553
30
0.0
0
POINT
5
10c2
8
0-0
62
  7
10
1614.606
20
760.553
30
0.0
0
POINT
5
10c3
8
0-0
62
  7
10
1438.162
20
1164.379
30
0.0
0
POINT
5
10c4
8
0-0
62
  7
10
1455.162
20
1164.379
30
0.0
0
POINT
5
10c5
8
0-0
62
  7
10
792.128
20
451.070
30
0.0
0
POINT
5
10c6
8
0-0
62
  7
10
792.128
20
361.070
30
0.0
0
ENDSEC
0
EOF
