0
SECTION
2
HEADER
  9
$EXTMIN
10
0
20
0
30
0
  9
$EXTMAX
10
1665.058
20
1417.365
30
0
  9
$LTSCALE
40
5.000
  9
$DIMSCALE
40
5.000
  9
$PDMODE
70
0
  9
$PDSIZE
40
40
0
ENDSEC
0
SECTION
2
TABLES
0
TABLE
2
LTYPE
70
9
0
LTYPE
5
1f4
2
CONTINUOUS
70
0
3
実線
72
65
73
0
40
0.0
0
LTYPE
5
1f5
2
DOT
70
0
3
--  --  --  --  --  --  --  --     
72
65
73
2
40
5.000
49
1.000
49
-4.000
0
LTYPE
5
1f6
2
DASHED
70
0
3
----    ----    ----    ----    
72
65
73
2
40
5.000
49
2.000
49
-3.000
0
LTYPE
5
1f7
2
DASHED2
70
0
3
------  ------  ------  ------ 
72
65
73
2
40
10.000
49
4.000
49
-6.000
0
LTYPE
5
1f8
2
CENTER
70
0
3
----- - ----- - ----- - ----- - 
72
65
73
4
40
9.000
49
6.000
49
-1.000
49
1.000
49
-1.000
0
LTYPE
5
1f9
2
CENTER2
70
0
3
----------  --  ----------  -- 
72
65
73
4
40
18.000
49
12.000
49
-2.000
49
2.000
49
-2.000
0
LTYPE
5
1fa
2
PHANTOM
70
0
3
--- - - --- - - --- - - --- - -
72
65
73
6
40
10.000
49
5.000
49
-1.000
49
1.000
49
-1.000
49
1.000
49
-1.000
0
LTYPE
5
1fb
2
PHANTOM2
70
0
3
--------  -  -  --------  -  -
72
65
73
6
40
16.000
49
6.000
49
-2.000
49
2.000
49
-2.000
49
2.000
49
-2.000
0
LTYPE
5
1fc
2
HIDDEN
70
0
3
-   -   -   -   -   -   -   -   
72
65
73
2
40
2.500
49
0.500
49
-2.000
0
ENDTAB
0
TABLE
2
STYLE
70
1
0
STYLE
5
1fd
100
AcDbSymbolTableRecord
100
AcDbTextStyleTableRecord
2
STANDARD
70
0
40
0.0
41
1.0
50
0.0
71
0
42
0.0
3
txt.shx
4
extfont.shx
0
STYLE
5
1fe
100
AcDbSymbolTableRecord
100
AcDbTextStyleTableRecord
2
TATEGAKI
70
4
40
0.0
41
1.0
50
0.0
71
0
42
0.0
3
txt.shx
4
extfont.shx
0
STYLE
5
1ff
100
AcDbSymbolTableRecord
100
AcDbTextStyleTableRecord
2
MT
70
0
40
0.0
41
1.0
50
0.0
71
0
42
0.0
3
MS Mincho
4

0
STYLE
5
200
100
AcDbSymbolTableRecord
100
AcDbTextStyleTableRecord
2
TMT
70
4
40
0.0
41
1.0
50
0.0
71
0
42
0.0
3
@MS Mincho
4

0
ENDTAB
0
TABLE
2
LAYER
5
1554
100
AcDbSymbolTable
70
10
0
LAYER
5
1555
100
AcDbSymbolTableRecord
100
AcDbLayerTableRecord
2
0
70
64
62
  7
  6
CONTINUOUS
0
LAYER
5
1556
100
AcDbSymbolTableRecord
100
AcDbLayerTableRecord
2
0-0
70
64
62
  7
  6
CONTINUOUS
0
LAYER
5
1557
100
AcDbSymbolTableRecord
100
AcDbLayerTableRecord
2
ADD_LINE
70
64
62
  -7
  6
CONTINUOUS
0
ENDTAB
0
ENDSEC
0
SECTION
2
ENTITIES
0
LINE
5
1558
8
0-0
6
CONTINUOUS
62
  7
10
794.466
20
482.812
30
0.0
11
766.108
21
466.687
31
0.0
0
LINE
5
1559
8
0-0
6
CONTINUOUS
62
  7
10
766.108
20
466.687
30
0.0
11
766.108
21
452.687
31
0.0
0
LINE
5
155a
8
0-0
6
CONTINUOUS
62
  7
10
788.971
20
464.530
30
0.0
11
766.108
21
452.687
31
0.0
0
LINE
5
155b
8
ADD_LINE
6
HIDDEN
62
  3
10
953.312
20
416.612
30
0.0
11
953.312
21
483.866
31
0.0
0
LINE
5
155c
8
ADD_LINE
6
HIDDEN
62
  3
10
953.312
20
425.676
30
0.0
11
953.312
21
423.651
31
0.0
0
LINE
5
155d
8
ADD_LINE
6
HIDDEN
62
  3
10
953.312
20
425.676
30
0.0
11
1022.387
21
425.676
31
0.0
0
LINE
5
155e
8
0-0
6
CONTINUOUS
62
  7
10
537.285
20
1192.261
30
0.0
11
557.285
21
1192.261
31
0.0
0
LINE
5
155f
8
0-0
6
CONTINUOUS
62
  7
10
557.285
20
1192.261
30
0.0
11
568.285
21
1192.261
31
0.0
0
LINE
5
1560
8
0-0
6
CONTINUOUS
62
  7
10
410.069
20
887.261
30
0.0
11
410.069
21
1192.261
31
0.0
0
LINE
5
1561
8
0-0
6
CONTINUOUS
62
  7
10
491.150
20
887.261
30
0.0
11
410.069
21
887.261
31
0.0
0
LINE
5
1562
8
0-0
6
CONTINUOUS
62
  7
10
491.150
20
1192.261
30
0.0
11
410.069
21
1192.261
31
0.0
0
LINE
5
1563
8
ADD_LINE
6
HIDDEN
62
  3
10
953.312
20
425.676
30
0.0
11
730.339
21
425.676
31
0.0
0
LINE
5
1564
8
ADD_LINE
6
HIDDEN
62
  3
10
766.108
20
452.687
30
0.0
11
766.108
21
415.745
31
0.0
0
LINE
5
1565
8
0-0
6
CONTINUOUS
62
  7
10
1188.447
20
468.401
30
0.0
11
1188.447
21
385.401
31
0.0
0
LINE
5
1566
8
0-0
6
CONTINUOUS
62
  7
10
1127.636
20
468.401
30
0.0
11
1188.447
21
468.401
31
0.0
0
LINE
5
1567
8
0-0
6
CONTINUOUS
62
  7
10
1127.636
20
385.401
30
0.0
11
1188.447
21
385.401
31
0.0
0
LINE
5
1568
8
0-0
6
CONTINUOUS
62
  7
10
1074.108
20
887.261
30
0.0
11
766.108
21
887.261
31
0.0
0
LINE
5
1569
8
0-0
6
CONTINUOUS
62
  7
10
811.108
20
1152.261
30
0.0
11
811.108
21
1192.261
31
0.0
0
LINE
5
156a
8
0-0
6
CONTINUOUS
62
  7
10
811.108
20
1152.261
30
0.0
11
766.108
21
1152.261
31
0.0
0
LINE
5
156b
8
0-0
6
CONTINUOUS
62
  7
10
766.108
20
887.261
30
0.0
11
766.108
21
1152.261
31
0.0
0
LINE
5
156c
8
0-0
6
CONTINUOUS
62
  7
10
1054.108
20
1184.261
30
0.0
11
811.108
21
1184.261
31
0.0
0
LINE
5
156d
8
0-0
6
CONTINUOUS
62
  7
10
1054.108
20
1192.261
30
0.0
11
811.108
21
1192.261
31
0.0
0
LINE
5
156e
8
0-0
6
CONTINUOUS
62
  7
10
1054.108
20
1192.261
30
0.0
11
1054.108
21
1184.261
31
0.0
0
LINE
5
156f
8
0-0
6
CONTINUOUS
62
  7
10
1074.108
20
887.261
30
0.0
11
1074.108
21
1187.261
31
0.0
0
LINE
5
1570
8
0-0
6
CONTINUOUS
62
  7
10
1054.108
20
1187.261
30
0.0
11
1074.108
21
1187.261
31
0.0
0
LINE
5
1571
8
0-0
6
CONTINUOUS
62
  7
10
537.285
20
1192.261
30
0.0
11
537.285
21
887.261
31
0.0
0
LINE
5
1572
8
0-0
6
CONTINUOUS
62
  7
10
576.285
20
887.261
30
0.0
11
537.285
21
887.261
31
0.0
0
LINE
5
1573
8
0-0
6
CONTINUOUS
62
  7
10
551.285
20
913.969
30
0.0
11
551.285
21
887.261
31
0.0
0
LINE
5
1574
8
0-0
6
CONTINUOUS
62
  7
10
551.285
20
1184.261
30
0.0
11
551.285
21
910.261
31
0.0
0
LINE
5
1575
8
0-0
6
CONTINUOUS
62
  7
10
557.285
20
1192.261
30
0.0
11
557.285
21
1184.261
31
0.0
0
LINE
5
1576
8
0-0
6
CONTINUOUS
62
  7
10
568.285
20
1184.261
30
0.0
11
568.285
21
1192.261
31
0.0
0
LINE
5
1577
8
0-0
6
CONTINUOUS
62
  7
10
568.285
20
1187.261
30
0.0
11
576.285
21
1187.261
31
0.0
0
LINE
5
1578
8
0-0
6
CONTINUOUS
62
  7
10
576.285
20
1187.261
30
0.0
11
576.285
21
887.261
31
0.0
0
LINE
5
1579
8
0-0
6
CONTINUOUS
62
  7
10
551.285
20
1184.261
30
0.0
11
568.285
21
1184.261
31
0.0
0
LINE
5
157a
8
0-0
6
CONTINUOUS
62
  7
10
1498.474
20
932.261
30
0.0
11
1480.474
21
1187.261
31
0.0
0
LINE
5
157b
8
0-0
6
CONTINUOUS
62
  7
10
1415.474
20
972.261
30
0.0
11
1495.651
21
972.261
31
0.0
0
LINE
5
157c
8
0-0
6
CONTINUOUS
62
  7
10
1415.474
20
932.261
30
0.0
11
1498.474
21
932.261
31
0.0
0
LINE
5
157d
8
0-0
6
CONTINUOUS
62
  7
10
1074.108
20
468.401
30
0.0
11
1074.108
21
385.401
31
0.0
0
LINE
5
157e
8
0-0
6
CONTINUOUS
62
  7
10
1058.108
20
446.620
30
0.0
11
1058.108
21
385.401
31
0.0
0
LINE
5
157f
8
0-0
6
CONTINUOUS
62
  7
10
766.108
20
1414.865
30
0.0
11
1074.108
21
1414.865
31
0.0
0
LINE
5
1580
8
0-0
6
CONTINUOUS
62
  7
10
766.108
20
1256.757
30
0.0
11
766.108
21
1414.865
31
0.0
0
LINE
5
1581
8
0-0
6
CONTINUOUS
62
  7
10
1074.108
20
1256.757
30
0.0
11
1074.108
21
1414.865
31
0.0
0
LINE
5
1582
8
0-0
6
CONTINUOUS
62
  7
10
1415.474
20
1414.865
30
0.0
11
1480.474
21
1414.865
31
0.0
0
LINE
5
1583
8
0-0
6
CONTINUOUS
62
  7
10
1415.474
20
1256.757
30
0.0
11
1415.474
21
1414.865
31
0.0
0
LINE
5
1584
8
0-0
6
CONTINUOUS
62
  7
10
1480.474
20
1256.757
30
0.0
11
1480.474
21
1414.865
31
0.0
0
LINE
5
1585
8
ADD_LINE
6
HIDDEN
62
  7
10
551.285
20
1184.261
30
0.0
11
551.285
21
1207.967
31
0.0
0
LINE
5
1586
8
0-0
6
CONTINUOUS
62
  7
10
537.285
20
1354.054
30
0.0
11
551.285
21
1354.054
31
0.0
0
LINE
5
1587
8
0-0
6
CONTINUOUS
62
  7
10
537.285
20
1256.757
30
0.0
11
537.285
21
1354.054
31
0.0
0
LINE
5
1588
8
0-0
6
CONTINUOUS
62
  7
10
551.285
20
1256.757
30
0.0
11
551.285
21
1354.054
31
0.0
0
LINE
5
1589
8
0-0
6
CONTINUOUS
62
  7
10
766.108
20
1354.054
30
0.0
11
811.108
21
1354.054
31
0.0
0
LINE
5
158a
8
0-0
6
CONTINUOUS
62
  7
10
766.108
20
1256.757
30
0.0
11
766.108
21
1354.054
31
0.0
0
LINE
5
158b
8
0-0
6
CONTINUOUS
62
  7
10
811.108
20
1256.757
30
0.0
11
811.108
21
1354.054
31
0.0
0
LINE
5
158c
8
0-0
6
CONTINUOUS
62
  7
10
811.108
20
1354.054
30
0.0
11
1074.108
21
1354.054
31
0.0
0
LINE
5
158d
8
0-0
6
CONTINUOUS
62
  7
10
1074.108
20
1256.757
30
0.0
11
1074.108
21
1354.054
31
0.0
0
LINE
5
158e
8
0-0
6
CONTINUOUS
62
  7
10
1415.474
20
1256.757
30
0.0
11
1415.474
21
1354.054
31
0.0
0
LINE
5
158f
8
0-0
6
CONTINUOUS
62
  7
10
1480.474
20
1256.757
30
0.0
11
1480.474
21
1354.054
31
0.0
0
LINE
5
1590
8
0-0
6
CONTINUOUS
62
  7
10
766.108
20
713.882
30
0.0
11
1074.108
21
713.882
31
0.0
0
LINE
5
1591
8
0-0
6
CONTINUOUS
62
  7
10
766.108
20
831.450
30
0.0
11
766.108
21
713.882
31
0.0
0
LINE
5
1592
8
0-0
6
CONTINUOUS
62
  7
10
1074.108
20
831.450
30
0.0
11
1074.108
21
713.882
31
0.0
0
LINE
5
1593
8
0-0
6
CONTINUOUS
62
  7
10
657.364
20
887.261
30
0.0
11
657.364
21
1152.261
31
0.0
0
LINE
5
1594
8
0-0
6
CONTINUOUS
62
  7
10
718.175
20
887.261
30
0.0
11
657.364
21
887.261
31
0.0
0
LINE
5
1595
8
0-0
6
CONTINUOUS
62
  7
10
718.175
20
1152.261
30
0.0
11
657.364
21
1152.261
31
0.0
0
LINE
5
1596
8
0-0
6
CONTINUOUS
62
  7
10
657.364
20
1152.261
30
0.0
11
657.364
21
1192.261
31
0.0
0
LINE
5
1597
8
0-0
6
CONTINUOUS
62
  7
10
718.175
20
1192.261
30
0.0
11
657.364
21
1192.261
31
0.0
0
LINE
5
1598
8
0-0
6
CONTINUOUS
62
  7
10
1281.688
20
887.261
30
0.0
11
1281.688
21
1192.261
31
0.0
0
LINE
5
1599
8
0-0
6
CONTINUOUS
62
  7
10
1156.013
20
887.261
30
0.0
11
1281.688
21
887.261
31
0.0
0
LINE
5
159a
8
0-0
6
CONTINUOUS
62
  7
10
1156.013
20
1192.261
30
0.0
11
1281.688
21
1192.261
31
0.0
0
LINE
5
159b
8
0-0
6
CONTINUOUS
62
  7
10
1245.984
20
887.261
30
0.0
11
1245.984
21
952.261
31
0.0
0
LINE
5
159c
8
0-0
6
CONTINUOUS
62
  7
10
1156.013
20
887.261
30
0.0
11
1245.984
21
887.261
31
0.0
0
LINE
5
159d
8
0-0
6
CONTINUOUS
62
  7
10
1156.013
20
952.261
30
0.0
11
1245.984
21
952.261
31
0.0
0
LINE
5
159e
8
0-0
6
CONTINUOUS
62
  7
10
1245.984
20
952.261
30
0.0
11
1245.984
21
1192.261
31
0.0
0
LINE
5
159f
8
0-0
6
CONTINUOUS
62
  7
10
1156.013
20
1192.261
30
0.0
11
1245.984
21
1192.261
31
0.0
0
LINE
5
15a0
8
0-0
6
CONTINUOUS
62
  7
10
1627.347
20
887.261
30
0.0
11
1627.347
21
932.261
31
0.0
0
LINE
5
15a1
8
0-0
6
CONTINUOUS
62
  7
10
1550.023
20
887.261
30
0.0
11
1627.347
21
887.261
31
0.0
0
LINE
5
15a2
8
0-0
6
CONTINUOUS
62
  7
10
1550.023
20
932.261
30
0.0
11
1627.347
21
932.261
31
0.0
0
LINE
5
15a3
8
0-0
6
CONTINUOUS
62
  7
10
1627.347
20
932.261
30
0.0
11
1627.347
21
1187.261
31
0.0
0
LINE
5
15a4
8
0-0
6
CONTINUOUS
62
  7
10
1550.023
20
1187.261
30
0.0
11
1627.347
21
1187.261
31
0.0
0
LINE
5
15a5
8
0-0
6
CONTINUOUS
62
  7
10
1587.026
20
887.261
30
0.0
11
1587.026
21
952.261
31
0.0
0
LINE
5
15a6
8
0-0
6
CONTINUOUS
62
  7
10
1550.023
20
887.261
30
0.0
11
1587.026
21
887.261
31
0.0
0
LINE
5
15a7
8
0-0
6
CONTINUOUS
62
  7
10
1550.023
20
952.261
30
0.0
11
1587.026
21
952.261
31
0.0
0
LINE
5
15a8
8
0-0
6
CONTINUOUS
62
  7
10
1587.026
20
952.261
30
0.0
11
1587.026
21
1187.261
31
0.0
0
LINE
5
15a9
8
0-0
6
CONTINUOUS
62
  7
10
1550.023
20
1187.261
30
0.0
11
1587.026
21
1187.261
31
0.0
0
LINE
5
15aa
8
0-0
6
CONTINUOUS
62
  7
10
1198.580
20
932.261
30
0.0
11
1198.580
21
972.261
31
0.0
0
LINE
5
15ab
8
0-0
6
CONTINUOUS
62
  7
10
1156.013
20
932.261
30
0.0
11
1198.580
21
932.261
31
0.0
0
LINE
5
15ac
8
0-0
6
CONTINUOUS
62
  7
10
1156.013
20
972.261
30
0.0
11
1198.580
21
972.261
31
0.0
0
LINE
5
15ad
8
0-0
6
CONTINUOUS
62
  7
10
1058.108
20
385.401
30
0.0
11
1094.108
21
385.401
31
0.0
0
LINE
5
15ae
8
0-0
6
CONTINUOUS
62
  7
10
1094.108
20
468.401
30
0.0
11
1094.108
21
385.401
31
0.0
0
LINE
5
15af
8
0-0
6
CONTINUOUS
62
  7
10
1074.108
20
468.401
30
0.0
11
1094.108
21
468.401
31
0.0
0
LINE
5
15b0
8
0-0
6
CONTINUOUS
62
  7
10
766.108
20
243.243
30
0.0
11
1074.108
21
243.243
31
0.0
0
LINE
5
15b1
8
0-0
6
CONTINUOUS
62
  7
10
766.108
20
336.487
30
0.0
11
766.108
21
243.243
31
0.0
0
LINE
5
15b2
8
0-0
6
CONTINUOUS
62
  7
10
1074.108
20
336.487
30
0.0
11
1074.108
21
243.243
31
0.0
0
LINE
5
15b3
8
0-0
6
CONTINUOUS
62
  7
10
1074.108
20
290.194
30
0.0
11
1058.108
21
290.194
31
0.0
0
LINE
5
15b4
8
0-0
6
CONTINUOUS
62
  7
10
1074.108
20
336.487
30
0.0
11
1074.108
21
290.194
31
0.0
0
LINE
5
15b5
8
0-0
6
CONTINUOUS
62
  7
10
1058.108
20
336.487
30
0.0
11
1058.108
21
290.194
31
0.0
0
LINE
5
15b6
8
ADD_LINE
6
HIDDEN
62
  3
10
1022.387
20
425.676
30
0.0
11
1098.416
21
425.676
31
0.0
0
LINE
5
15b7
8
0-0
6
CONTINUOUS
62
  7
10
1415.474
20
1187.261
30
0.0
11
1415.474
21
887.261
31
0.0
0
LINE
5
15b8
8
0-0
6
CONTINUOUS
62
  7
10
1415.474
20
1187.261
30
0.0
11
1480.474
21
1187.261
31
0.0
0
LINE
5
15b9
8
0-0
6
CONTINUOUS
62
  7
10
1665.058
20
1187.261
30
0.0
11
1665.058
21
887.261
31
0.0
0
LINE
5
15ba
8
0-0
6
CONTINUOUS
62
  7
10
1550.023
20
1187.261
30
0.0
11
1665.058
21
1187.261
31
0.0
0
LINE
5
15bb
8
0-0
6
CONTINUOUS
62
  7
10
1550.023
20
887.261
30
0.0
11
1665.058
21
887.261
31
0.0
0
LINE
5
15bc
8
0-0
6
CONTINUOUS
62
  7
10
1415.474
20
887.261
30
0.0
11
1433.474
21
887.261
31
0.0
0
LINE
5
15bd
8
0-0
6
CONTINUOUS
62
  7
10
1433.474
20
932.261
30
0.0
11
1433.474
21
887.261
31
0.0
0
LINE
5
15be
8
0-0
6
CONTINUOUS
62
  7
10
1415.474
20
713.882
30
0.0
11
1498.474
21
713.882
31
0.0
0
LINE
5
15bf
8
0-0
6
CONTINUOUS
62
  7
10
1415.474
20
831.450
30
0.0
11
1415.474
21
713.882
31
0.0
0
LINE
5
15c0
8
0-0
6
CONTINUOUS
62
  7
10
1498.474
20
831.450
30
0.0
11
1498.474
21
713.882
31
0.0
0
LINE
5
15c1
8
0-0
6
CONTINUOUS
62
  7
10
1415.474
20
758.108
30
0.0
11
1433.474
21
758.108
31
0.0
0
LINE
5
15c2
8
0-0
6
CONTINUOUS
62
  7
10
1415.474
20
831.450
30
0.0
11
1415.474
21
758.108
31
0.0
0
LINE
5
15c3
8
0-0
6
CONTINUOUS
62
  7
10
1433.474
20
831.450
30
0.0
11
1433.474
21
758.108
31
0.0
0
LINE
5
15c4
8
0-0
6
CONTINUOUS
62
  7
10
1433.474
20
758.108
30
0.0
11
1498.474
21
758.108
31
0.0
0
LINE
5
15c5
8
0-0
6
CONTINUOUS
62
  7
10
1498.474
20
831.450
30
0.0
11
1498.474
21
758.108
31
0.0
0
ARC
5
15c6
8
0-0
6
CONTINUOUS
62
  7
10
803.666
20
470.570
30
0.0
40
15.314
50
42.690552
51
126.920761
0
ARC
5
15c7
8
0-0
6
CONTINUOUS
62
  7
10
954.460
20
692.742
30
0.0
40
267.069
50
239.390030
51
292.139587
0
CIRCLE
5
15c8
8
ADD_LINE
6
HIDDEN
62
  3
10
953.310
20
425.676
30
0.0
40
3.000
0
CIRCLE
5
15c9
8
ADD_LINE
6
HIDDEN
62
  3
10
766.108
20
425.676
30
0.0
40
3.000
0
CIRCLE
5
15ca
8
0-0
6
CONTINUOUS
62
  7
10
871.108
20
1172.261
30
0.0
40
3.000
0
CIRCLE
5
15cb
8
0-0
6
CONTINUOUS
62
  7
10
971.108
20
1172.261
30
0.0
40
3.000
0
CIRCLE
5
15cc
8
0-0
6
CONTINUOUS
62
  7
10
1044.108
20
977.261
30
0.0
40
3.000
0
CIRCLE
5
15cd
8
0-0
6
CONTINUOUS
62
  7
10
1044.108
20
957.261
30
0.0
40
3.000
0
ARC
5
15ce
8
0-0
6
CONTINUOUS
62
  7
10
1074.108
20
952.261
30
0.0
40
20.000
50
270.000000
51
90.000000
0
ARC
5
15cf
8
0-0
6
CONTINUOUS
62
  7
10
955.403
20
699.515
30
0.0
40
259.817
50
237.269089
51
297.185913
0
ARC
5
15d0
8
0-0
6
CONTINUOUS
62
  7
10
802.732
20
445.937
30
0.0
40
23.132
50
47.123047
51
126.507172
0
ARC
5
15d1
8
0-0
6
CONTINUOUS
62
  7
10
936.078
20
733.990
30
0.0
40
312.207
50
292.411407
51
293.008118
0
CIRCLE
5
15d2
8
ADD_LINE
6
HIDDEN
62
  3
10
1058.108
20
425.676
30
0.0
40
3.000
0
TEXT
5
15d3
100
AcDbEntity
8
0-0
62
7
100
AcDbText
10
405.696
20
1032.807
30
0.0
40
9.750
41
0.800
50
90.000
1
305
100
AcDbText
0
TEXT
5
15d4
100
AcDbEntity
8
0-0
62
7
100
AcDbText
10
1185.947
20
420.651
30
0.0
40
9.750
41
0.800
50
90.000
1
83
100
AcDbText
0
TEXT
5
15d5
100
AcDbEntity
8
0-0
62
7
100
AcDbText
10
910.733
20
1417.365
30
0.0
40
9.750
41
0.800
50
0.000
1
308
100
AcDbText
0
TEXT
5
15d6
100
AcDbEntity
8
0-0
62
7
100
AcDbText
10
1441.724
20
1417.365
30
0.0
40
9.750
41
0.800
50
0.000
1
65
100
AcDbText
0
TEXT
5
15d7
100
AcDbEntity
8
0-0
62
7
100
AcDbText
10
538.035
20
1356.554
30
0.0
40
9.750
41
0.800
50
0.000
1
14
100
AcDbText
0
TEXT
5
15d8
100
AcDbEntity
8
0-0
62
7
100
AcDbText
10
782.358
20
1356.554
30
0.0
40
9.750
41
0.800
50
0.000
1
45
100
AcDbText
0
TEXT
5
15d9
100
AcDbEntity
8
0-0
62
7
100
AcDbText
10
933.233
20
1356.554
30
0.0
40
9.750
41
0.800
50
0.000
1
263
100
AcDbText
0
TEXT
5
15da
100
AcDbEntity
8
0-0
62
7
100
AcDbText
10
910.733
20
716.382
30
0.0
40
9.750
41
0.800
50
0.000
1
308
100
AcDbText
0
TEXT
5
15db
100
AcDbEntity
8
0-0
62
7
100
AcDbText
10
654.864
20
1010.386
30
0.0
40
9.750
41
0.800
50
90.000
1
265
100
AcDbText
0
TEXT
5
15dc
100
AcDbEntity
8
0-0
62
7
100
AcDbText
10
654.864
20
1166.011
30
0.0
40
9.750
41
0.800
50
90.000
1
40
100
AcDbText
0
TEXT
5
15dd
100
AcDbEntity
8
0-0
62
7
100
AcDbText
10
1279.188
20
1030.386
30
0.0
40
9.750
41
0.800
50
90.000
1
305
100
AcDbText
0
TEXT
5
15de
100
AcDbEntity
8
0-0
62
7
100
AcDbText
10
1243.484
20
913.511
30
0.0
40
9.750
41
0.800
50
90.000
1
65
100
AcDbText
0
TEXT
5
15df
100
AcDbEntity
8
0-0
62
7
100
AcDbText
10
1243.484
20
1062.886
30
0.0
40
9.750
41
0.800
50
90.000
1
240
100
AcDbText
0
TEXT
5
15e0
100
AcDbEntity
8
0-0
62
7
100
AcDbText
10
1624.847
20
903.511
30
0.0
40
9.750
41
0.800
50
90.000
1
45
100
AcDbText
0
TEXT
5
15e1
100
AcDbEntity
8
0-0
62
7
100
AcDbText
10
1624.847
20
1050.386
30
0.0
40
9.750
41
0.800
50
90.000
1
255
100
AcDbText
0
TEXT
5
15e2
100
AcDbEntity
8
0-0
62
7
100
AcDbText
10
1584.526
20
913.511
30
0.0
40
9.750
41
0.800
50
90.000
1
65
100
AcDbText
0
TEXT
5
15e3
100
AcDbEntity
8
0-0
62
7
100
AcDbText
10
1584.526
20
1060.386
30
0.0
40
9.750
41
0.800
50
90.000
1
235
100
AcDbText
0
TEXT
5
15e4
100
AcDbEntity
8
0-0
62
7
100
AcDbText
10
1196.080
20
946.011
30
0.0
40
9.750
41
0.800
50
90.000
1
40
100
AcDbText
0
TEXT
5
15e5
100
AcDbEntity
8
0-0
62
7
100
AcDbText
10
910.733
20
245.743
30
0.0
40
9.750
41
0.800
50
0.000
1
308
100
AcDbText
0
TEXT
5
15e6
100
AcDbEntity
8
0-0
62
7
100
AcDbText
10
1059.858
20
292.694
30
0.0
40
9.750
41
0.800
50
0.000
1
16
100
AcDbText
0
TEXT
5
15e7
100
AcDbEntity
8
0-0
62
7
100
AcDbText
10
1662.558
20
1027.886
30
0.0
40
9.750
41
0.800
50
90.000
1
300
100
AcDbText
0
TEXT
5
15e8
100
AcDbEntity
8
0-0
62
7
100
AcDbText
10
1450.724
20
716.382
30
0.0
40
9.750
41
0.800
50
0.000
1
83
100
AcDbText
0
TEXT
5
15e9
100
AcDbEntity
8
0-0
62
7
100
AcDbText
10
1418.224
20
760.608
30
0.0
40
9.750
41
0.800
50
0.000
1
18
100
AcDbText
0
TEXT
5
15ea
100
AcDbEntity
8
0-0
62
7
100
AcDbText
10
1459.724
20
760.608
30
0.0
40
9.750
41
0.800
50
0.000
1
65
100
AcDbText
0
POINT
5
15eb
8
0-0
62
  7
10
410.069
20
887.261
30
0.0
0
POINT
5
15ec
8
0-0
62
  7
10
410.069
20
1192.261
30
0.0
0
POINT
5
15ed
8
0-0
62
  7
10
1188.447
20
468.401
30
0.0
0
POINT
5
15ee
8
0-0
62
  7
10
1188.447
20
385.401
30
0.0
0
POINT
5
15ef
8
0-0
62
  7
10
766.108
20
1414.865
30
0.0
0
POINT
5
15f0
8
0-0
62
  7
10
1074.108
20
1414.865
30
0.0
0
POINT
5
15f1
8
0-0
62
  7
10
1415.474
20
1414.865
30
0.0
0
POINT
5
15f2
8
0-0
62
  7
10
1480.474
20
1414.865
30
0.0
0
POINT
5
15f3
8
0-0
62
  7
10
537.285
20
1354.054
30
0.0
0
POINT
5
15f4
8
0-0
62
  7
10
551.285
20
1354.054
30
0.0
0
POINT
5
15f5
8
0-0
62
  7
10
766.108
20
1354.054
30
0.0
0
POINT
5
15f6
8
0-0
62
  7
10
811.108
20
1354.054
30
0.0
0
POINT
5
15f7
8
0-0
62
  7
10
1074.108
20
1354.054
30
0.0
0
POINT
5
15f8
8
0-0
62
  7
10
766.108
20
713.882
30
0.0
0
POINT
5
15f9
8
0-0
62
  7
10
1074.108
20
713.882
30
0.0
0
POINT
5
15fa
8
0-0
62
  7
10
657.364
20
887.261
30
0.0
0
POINT
5
15fb
8
0-0
62
  7
10
657.364
20
1152.261
30
0.0
0
POINT
5
15fc
8
0-0
62
  7
10
657.364
20
1192.261
30
0.0
0
POINT
5
15fd
8
0-0
62
  7
10
1281.688
20
887.261
30
0.0
0
POINT
5
15fe
8
0-0
62
  7
10
1281.688
20
1192.261
30
0.0
0
POINT
5
15ff
8
0-0
62
  7
10
1245.984
20
887.261
30
0.0
0
POINT
5
1600
8
0-0
62
  7
10
1245.984
20
952.261
30
0.0
0
POINT
5
1601
8
0-0
62
  7
10
1245.984
20
1192.261
30
0.0
0
POINT
5
1602
8
0-0
62
  7
10
1627.347
20
887.261
30
0.0
0
POINT
5
1603
8
0-0
62
  7
10
1627.347
20
932.261
30
0.0
0
POINT
5
1604
8
0-0
62
  7
10
1587.026
20
887.261
30
0.0
0
POINT
5
1605
8
0-0
62
  7
10
1587.026
20
952.261
30
0.0
0
POINT
5
1606
8
0-0
62
  7
10
1587.026
20
1187.261
30
0.0
0
POINT
5
1607
8
0-0
62
  7
10
1198.580
20
932.261
30
0.0
0
POINT
5
1608
8
0-0
62
  7
10
1198.580
20
972.261
30
0.0
0
POINT
5
1609
8
0-0
62
  7
10
766.108
20
243.243
30
0.0
0
POINT
5
160a
8
0-0
62
  7
10
1074.108
20
243.243
30
0.0
0
POINT
5
160b
8
0-0
62
  7
10
1074.108
20
290.194
30
0.0
0
POINT
5
160c
8
0-0
62
  7
10
1058.108
20
290.194
30
0.0
0
POINT
5
160d
8
0-0
62
  7
10
1627.347
20
1187.261
30
0.0
0
POINT
5
160e
8
0-0
62
  7
10
1665.058
20
1187.261
30
0.0
0
POINT
5
160f
8
0-0
62
  7
10
1665.058
20
887.261
30
0.0
0
POINT
5
1610
8
0-0
62
  7
10
1415.474
20
713.882
30
0.0
0
POINT
5
1611
8
0-0
62
  7
10
1498.474
20
713.882
30
0.0
0
POINT
5
1612
8
0-0
62
  7
10
1415.474
20
758.108
30
0.0
0
POINT
5
1613
8
0-0
62
  7
10
1433.474
20
758.108
30
0.0
0
POINT
5
1614
8
0-0
62
  7
10
1498.474
20
758.108
30
0.0
0
ENDSEC
0
EOF
