0
SECTION
2
HEADER
  9
$EXTMIN
10
0
20
0
30
0
  9
$EXTMAX
10
1532.229
20
1175.489
30
0
  9
$LTSCALE
40
5.000
  9
$DIMSCALE
40
5.000
  9
$PDMODE
70
0
  9
$PDSIZE
40
40
0
ENDSEC
0
SECTION
2
TABLES
0
TABLE
2
LTYPE
70
9
0
LTYPE
5
1f4
2
CONTINUOUS
70
0
3
実線
72
65
73
0
40
0.0
0
LTYPE
5
1f5
2
DOT
70
0
3
--  --  --  --  --  --  --  --     
72
65
73
2
40
5.000
49
1.000
49
-4.000
0
LTYPE
5
1f6
2
DASHED
70
0
3
----    ----    ----    ----    
72
65
73
2
40
5.000
49
2.000
49
-3.000
0
LTYPE
5
1f7
2
DASHED2
70
0
3
------  ------  ------  ------ 
72
65
73
2
40
10.000
49
4.000
49
-6.000
0
LTYPE
5
1f8
2
CENTER
70
0
3
----- - ----- - ----- - ----- - 
72
65
73
4
40
9.000
49
6.000
49
-1.000
49
1.000
49
-1.000
0
LTYPE
5
1f9
2
CENTER2
70
0
3
----------  --  ----------  -- 
72
65
73
4
40
18.000
49
12.000
49
-2.000
49
2.000
49
-2.000
0
LTYPE
5
1fa
2
PHANTOM
70
0
3
--- - - --- - - --- - - --- - -
72
65
73
6
40
10.000
49
5.000
49
-1.000
49
1.000
49
-1.000
49
1.000
49
-1.000
0
LTYPE
5
1fb
2
PHANTOM2
70
0
3
--------  -  -  --------  -  -
72
65
73
6
40
16.000
49
6.000
49
-2.000
49
2.000
49
-2.000
49
2.000
49
-2.000
0
LTYPE
5
1fc
2
HIDDEN
70
0
3
-   -   -   -   -   -   -   -   
72
65
73
2
40
2.500
49
0.500
49
-2.000
0
ENDTAB
0
TABLE
2
STYLE
70
1
0
STYLE
5
1fd
100
AcDbSymbolTableRecord
100
AcDbTextStyleTableRecord
2
STANDARD
70
0
40
0.0
41
1.0
50
0.0
71
0
42
0.0
3
txt.shx
4
extfont.shx
0
STYLE
5
1fe
100
AcDbSymbolTableRecord
100
AcDbTextStyleTableRecord
2
TATEGAKI
70
4
40
0.0
41
1.0
50
0.0
71
0
42
0.0
3
txt.shx
4
extfont.shx
0
STYLE
5
1ff
100
AcDbSymbolTableRecord
100
AcDbTextStyleTableRecord
2
MT
70
0
40
0.0
41
1.0
50
0.0
71
0
42
0.0
3
MS Mincho
4

0
STYLE
5
200
100
AcDbSymbolTableRecord
100
AcDbTextStyleTableRecord
2
TMT
70
4
40
0.0
41
1.0
50
0.0
71
0
42
0.0
3
@MS Mincho
4

0
ENDTAB
0
TABLE
2
LAYER
5
1a9a
100
AcDbSymbolTable
70
10
0
LAYER
5
1a9b
100
AcDbSymbolTableRecord
100
AcDbLayerTableRecord
2
0
70
64
62
  7
  6
CONTINUOUS
0
LAYER
5
1a9c
100
AcDbSymbolTableRecord
100
AcDbLayerTableRecord
2
0-0
70
64
62
  7
  6
CONTINUOUS
0
LAYER
5
1a9d
100
AcDbSymbolTableRecord
100
AcDbLayerTableRecord
2
ADD_LINE
70
64
62
  -7
  6
CONTINUOUS
0
ENDTAB
0
ENDSEC
0
SECTION
2
ENTITIES
0
LINE
5
1a9e
8
0-0
6
CONTINUOUS
62
  7
10
813.919
20
627.108
30
0.0
11
815.428
21
641.108
31
0.0
0
LINE
5
1a9f
8
0-0
6
CONTINUOUS
62
  7
10
903.919
20
627.108
30
0.0
11
903.919
21
641.108
31
0.0
0
LINE
5
1aa0
8
0-0
6
CONTINUOUS
62
  7
10
815.428
20
641.108
30
0.0
11
818.919
21
641.108
31
0.0
0
LINE
5
1aa1
8
0-0
6
CONTINUOUS
62
  7
10
903.919
20
641.108
30
0.0
11
1043.919
21
641.108
31
0.0
0
LINE
5
1aa2
8
0-0
6
CONTINUOUS
62
  7
10
858.919
20
908.108
30
0.0
11
858.919
21
941.108
31
0.0
0
LINE
5
1aa3
8
0-0
6
CONTINUOUS
62
  7
10
818.919
20
908.108
30
0.0
11
858.919
21
908.108
31
0.0
0
LINE
5
1aa4
8
0-0
6
CONTINUOUS
62
  7
10
818.919
20
641.108
30
0.0
11
818.919
21
908.108
31
0.0
0
LINE
5
1aa5
8
0-0
6
CONTINUOUS
62
  7
10
818.919
20
901.108
30
0.0
11
818.919
21
908.108
31
0.0
0
LINE
5
1aa6
8
0-0
6
CONTINUOUS
62
  7
10
858.919
20
908.108
30
0.0
11
868.919
21
908.108
31
0.0
0
LINE
5
1aa7
8
0-0
6
CONTINUOUS
62
  7
10
868.919
20
908.108
30
0.0
11
878.919
21
941.108
31
0.0
0
LINE
5
1aa8
8
0-0
6
CONTINUOUS
62
  7
10
556.892
20
941.108
30
0.0
11
572.892
21
941.108
31
0.0
0
LINE
5
1aa9
8
0-0
6
CONTINUOUS
62
  7
10
572.892
20
941.108
30
0.0
11
572.892
21
641.108
31
0.0
0
LINE
5
1aaa
8
0-0
6
CONTINUOUS
62
  7
10
572.892
20
641.108
30
0.0
11
528.138
21
636.404
31
0.0
0
LINE
5
1aab
8
0-0
6
CONTINUOUS
62
  7
10
526.257
20
654.305
30
0.0
11
528.138
21
636.404
31
0.0
0
LINE
5
1aac
8
0-0
6
CONTINUOUS
62
  7
10
556.892
20
657.525
30
0.0
11
526.257
21
654.305
31
0.0
0
LINE
5
1aad
8
0-0
6
CONTINUOUS
62
  7
10
556.892
20
941.108
30
0.0
11
556.892
21
657.525
31
0.0
0
LINE
5
1aae
8
0-0
6
CONTINUOUS
62
  7
10
572.892
20
941.108
30
0.0
11
602.892
21
941.108
31
0.0
0
LINE
5
1aaf
8
0-0
6
CONTINUOUS
62
  7
10
602.892
20
941.108
30
0.0
11
602.892
21
644.261
31
0.0
0
LINE
5
1ab0
8
0-0
6
CONTINUOUS
62
  7
10
572.892
20
641.108
30
0.0
11
602.892
21
644.261
31
0.0
0
LINE
5
1ab1
8
0-0
6
CONTINUOUS
62
  7
10
1356.561
20
941.108
30
0.0
11
1356.561
21
646.108
31
0.0
0
LINE
5
1ab2
8
0-0
6
CONTINUOUS
62
  7
10
1375.561
20
941.108
30
0.0
11
1375.561
21
662.210
31
0.0
0
LINE
5
1ab3
8
0-0
6
CONTINUOUS
62
  7
10
1375.561
20
662.210
30
0.0
11
1393.251
21
660.350
31
0.0
0
LINE
5
1ab4
8
0-0
6
CONTINUOUS
62
  7
10
1356.561
20
646.108
30
0.0
11
1391.369
21
642.449
31
0.0
0
LINE
5
1ab5
8
0-0
6
CONTINUOUS
62
  7
10
1398.698
20
864.605
30
0.0
11
1398.835
21
864.258
31
0.0
0
LINE
5
1ab6
8
0-0
6
CONTINUOUS
62
  7
10
1400.021
20
789.119
30
0.0
11
1400.587
21
788.665
31
0.0
0
LINE
5
1ab7
8
0-0
6
CONTINUOUS
62
  7
10
1400.587
20
788.665
30
0.0
11
1401.021
21
788.177
31
0.0
0
LINE
5
1ab8
8
0-0
6
CONTINUOUS
62
  7
10
1401.021
20
788.177
30
0.0
11
1401.323
21
787.655
31
0.0
0
LINE
5
1ab9
8
0-0
6
CONTINUOUS
62
  7
10
1401.323
20
787.655
30
0.0
11
1401.410
21
787.400
31
0.0
0
LINE
5
1aba
8
0-0
6
CONTINUOUS
62
  7
10
1401.410
20
787.400
30
0.0
11
1401.459
21
787.091
31
0.0
0
LINE
5
1abb
8
0-0
6
CONTINUOUS
62
  7
10
1401.459
20
787.091
30
0.0
11
1401.418
21
786.412
31
0.0
0
LINE
5
1abc
8
0-0
6
CONTINUOUS
62
  7
10
1401.418
20
786.412
30
0.0
11
1401.211
21
785.676
31
0.0
0
LINE
5
1abd
8
0-0
6
CONTINUOUS
62
  7
10
1401.211
20
785.676
30
0.0
11
1400.850
21
784.881
31
0.0
0
LINE
5
1abe
8
0-0
6
CONTINUOUS
62
  7
10
1400.850
20
784.881
30
0.0
11
1400.596
21
784.432
31
0.0
0
LINE
5
1abf
8
0-0
6
CONTINUOUS
62
  7
10
1400.596
20
784.432
30
0.0
11
1400.274
21
783.933
31
0.0
0
LINE
5
1ac0
8
0-0
6
CONTINUOUS
62
  7
10
1400.274
20
783.933
30
0.0
11
1399.648
21
783.137
31
0.0
0
LINE
5
1ac1
8
0-0
6
CONTINUOUS
62
  7
10
1399.648
20
783.137
30
0.0
11
1398.990
21
782.519
31
0.0
0
LINE
5
1ac2
8
0-0
6
CONTINUOUS
62
  7
10
1398.990
20
782.519
30
0.0
11
1398.299
21
782.099
31
0.0
0
LINE
5
1ac3
8
0-0
6
CONTINUOUS
62
  7
10
1398.299
20
782.099
30
0.0
11
1397.957
21
781.980
31
0.0
0
LINE
5
1ac4
8
0-0
6
CONTINUOUS
62
  7
10
1397.957
20
781.980
30
0.0
11
1397.460
21
781.913
31
0.0
0
LINE
5
1ac5
8
0-0
6
CONTINUOUS
62
  7
10
1397.460
20
781.913
30
0.0
11
1396.396
21
782.050
31
0.0
0
LINE
5
1ac6
8
0-0
6
CONTINUOUS
62
  7
10
1396.396
20
782.050
30
0.0
11
1395.245
21
782.479
31
0.0
0
LINE
5
1ac7
8
0-0
6
CONTINUOUS
62
  7
10
1395.245
20
782.479
30
0.0
11
1394.056
21
783.136
31
0.0
0
LINE
5
1ac8
8
0-0
6
CONTINUOUS
62
  7
10
1394.056
20
783.136
30
0.0
11
1393.402
21
783.570
31
0.0
0
LINE
5
1ac9
8
0-0
6
CONTINUOUS
62
  7
10
1393.402
20
783.570
30
0.0
11
1392.803
21
784.009
31
0.0
0
LINE
5
1aca
8
0-0
6
CONTINUOUS
62
  7
10
1392.803
20
784.009
30
0.0
11
1391.832
21
784.810
31
0.0
0
LINE
5
1acb
8
0-0
6
CONTINUOUS
62
  7
10
1391.832
20
784.810
30
0.0
11
1390.945
21
785.655
31
0.0
0
LINE
5
1acc
8
0-0
6
CONTINUOUS
62
  7
10
1390.945
20
785.655
30
0.0
11
1390.108
21
786.562
31
0.0
0
LINE
5
1acd
8
0-0
6
CONTINUOUS
62
  7
10
1390.108
20
786.562
30
0.0
11
1389.640
21
787.115
31
0.0
0
LINE
5
1ace
8
0-0
6
CONTINUOUS
62
  7
10
1389.640
20
787.115
30
0.0
11
1389.447
21
787.353
31
0.0
0
LINE
5
1acf
8
0-0
6
CONTINUOUS
62
  7
10
1389.447
20
787.353
30
0.0
11
1389.127
21
787.773
31
0.0
0
LINE
5
1ad0
8
0-0
6
CONTINUOUS
62
  7
10
1389.127
20
787.773
30
0.0
11
1388.849
21
788.187
31
0.0
0
LINE
5
1ad1
8
0-0
6
CONTINUOUS
62
  7
10
1388.849
20
788.187
30
0.0
11
1388.616
21
788.606
31
0.0
0
LINE
5
1ad2
8
0-0
6
CONTINUOUS
62
  7
10
1388.616
20
788.606
30
0.0
11
1388.516
21
788.833
31
0.0
0
LINE
5
1ad3
8
0-0
6
CONTINUOUS
62
  7
10
1388.516
20
788.833
30
0.0
11
1388.443
21
789.031
31
0.0
0
LINE
5
1ad4
8
0-0
6
CONTINUOUS
62
  7
10
1388.443
20
789.031
30
0.0
11
1388.329
21
789.433
31
0.0
0
LINE
5
1ad5
8
0-0
6
CONTINUOUS
62
  7
10
1388.329
20
789.433
30
0.0
11
1388.237
21
789.862
31
0.0
0
LINE
5
1ad6
8
0-0
6
CONTINUOUS
62
  7
10
1388.237
20
789.862
30
0.0
11
1388.155
21
790.325
31
0.0
0
LINE
5
1ad7
8
0-0
6
CONTINUOUS
62
  7
10
1388.155
20
790.325
30
0.0
11
1388.112
21
790.584
31
0.0
0
LINE
5
1ad8
8
0-0
6
CONTINUOUS
62
  7
10
1388.112
20
790.584
30
0.0
11
1388.066
21
790.857
31
0.0
0
LINE
5
1ad9
8
0-0
6
CONTINUOUS
62
  7
10
1388.066
20
790.857
30
0.0
11
1387.994
21
791.297
31
0.0
0
LINE
5
1ada
8
0-0
6
CONTINUOUS
62
  7
10
1387.994
20
791.297
30
0.0
11
1387.936
21
791.711
31
0.0
0
LINE
5
1adb
8
0-0
6
CONTINUOUS
62
  7
10
1387.936
20
791.711
30
0.0
11
1387.899
21
792.111
31
0.0
0
LINE
5
1adc
8
0-0
6
CONTINUOUS
62
  7
10
1387.899
20
792.111
30
0.0
11
1387.889
21
792.326
31
0.0
0
LINE
5
1add
8
0-0
6
CONTINUOUS
62
  7
10
1387.889
20
792.326
30
0.0
11
1387.889
21
792.553
31
0.0
0
LINE
5
1ade
8
0-0
6
CONTINUOUS
62
  7
10
1387.889
20
792.553
30
0.0
11
1387.912
21
792.967
31
0.0
0
LINE
5
1adf
8
0-0
6
CONTINUOUS
62
  7
10
1387.912
20
792.967
30
0.0
11
1387.964
21
793.384
31
0.0
0
LINE
5
1ae0
8
0-0
6
CONTINUOUS
62
  7
10
1387.964
20
793.384
30
0.0
11
1388.041
21
793.811
31
0.0
0
LINE
5
1ae1
8
0-0
6
CONTINUOUS
62
  7
10
1388.041
20
793.811
30
0.0
11
1388.094
21
794.046
31
0.0
0
LINE
5
1ae2
8
0-0
6
CONTINUOUS
62
  7
10
1388.094
20
794.046
30
0.0
11
1388.237
21
794.585
31
0.0
0
LINE
5
1ae3
8
0-0
6
CONTINUOUS
62
  7
10
1388.237
20
794.585
30
0.0
11
1388.560
21
795.506
31
0.0
0
LINE
5
1ae4
8
0-0
6
CONTINUOUS
62
  7
10
1388.560
20
795.506
30
0.0
11
1388.966
21
796.374
31
0.0
0
LINE
5
1ae5
8
0-0
6
CONTINUOUS
62
  7
10
1388.966
20
796.374
30
0.0
11
1389.461
21
797.198
31
0.0
0
LINE
5
1ae6
8
0-0
6
CONTINUOUS
62
  7
10
1389.461
20
797.198
30
0.0
11
1389.780
21
797.636
31
0.0
0
LINE
5
1ae7
8
0-0
6
CONTINUOUS
62
  7
10
1389.780
20
797.636
30
0.0
11
1389.957
21
797.856
31
0.0
0
LINE
5
1ae8
8
0-0
6
CONTINUOUS
62
  7
10
1389.957
20
797.856
30
0.0
11
1390.300
21
798.254
31
0.0
0
LINE
5
1ae9
8
0-0
6
CONTINUOUS
62
  7
10
1390.300
20
798.254
30
0.0
11
1390.670
21
798.666
31
0.0
0
LINE
5
1aea
8
0-0
6
CONTINUOUS
62
  7
10
1390.670
20
798.666
30
0.0
11
1391.045
21
799.089
31
0.0
0
LINE
5
1aeb
8
0-0
6
CONTINUOUS
62
  7
10
1391.045
20
799.089
30
0.0
11
1391.270
21
799.353
31
0.0
0
LINE
5
1aec
8
0-0
6
CONTINUOUS
62
  7
10
1391.270
20
799.353
30
0.0
11
1391.511
21
799.652
31
0.0
0
LINE
5
1aed
8
0-0
6
CONTINUOUS
62
  7
10
1391.511
20
799.652
30
0.0
11
1391.893
21
800.145
31
0.0
0
LINE
5
1aee
8
0-0
6
CONTINUOUS
62
  7
10
1391.893
20
800.145
30
0.0
11
1392.262
21
800.616
31
0.0
0
LINE
5
1aef
8
0-0
6
CONTINUOUS
62
  7
10
1392.262
20
800.616
30
0.0
11
1392.628
21
801.046
31
0.0
0
LINE
5
1af0
8
0-0
6
CONTINUOUS
62
  7
10
1392.628
20
801.046
30
0.0
11
1392.837
21
801.263
31
0.0
0
LINE
5
1af1
8
0-0
6
CONTINUOUS
62
  7
10
1392.837
20
801.263
30
0.0
11
1393.008
21
801.425
31
0.0
0
LINE
5
1af2
8
0-0
6
CONTINUOUS
62
  7
10
1393.008
20
801.425
30
0.0
11
1393.346
21
801.713
31
0.0
0
LINE
5
1af3
8
0-0
6
CONTINUOUS
62
  7
10
1393.346
20
801.713
30
0.0
11
1393.707
21
801.990
31
0.0
0
LINE
5
1af4
8
0-0
6
CONTINUOUS
62
  7
10
1393.707
20
801.990
30
0.0
11
1394.099
21
802.270
31
0.0
0
LINE
5
1af5
8
0-0
6
CONTINUOUS
62
  7
10
1394.099
20
802.270
30
0.0
11
1394.334
21
802.434
31
0.0
0
LINE
5
1af6
8
0-0
6
CONTINUOUS
62
  7
10
1394.334
20
802.434
30
0.0
11
1394.569
21
802.595
31
0.0
0
LINE
5
1af7
8
0-0
6
CONTINUOUS
62
  7
10
1394.569
20
802.595
30
0.0
11
1394.978
21
802.865
31
0.0
0
LINE
5
1af8
8
0-0
6
CONTINUOUS
62
  7
10
1394.978
20
802.865
30
0.0
11
1395.366
21
803.094
31
0.0
0
LINE
5
1af9
8
0-0
6
CONTINUOUS
62
  7
10
1395.366
20
803.094
30
0.0
11
1395.750
21
803.280
31
0.0
0
LINE
5
1afa
8
0-0
6
CONTINUOUS
62
  7
10
1395.750
20
803.280
30
0.0
11
1395.938
21
803.351
31
0.0
0
LINE
5
1afb
8
0-0
6
CONTINUOUS
62
  7
10
1395.938
20
803.351
30
0.0
11
1396.258
21
803.440
31
0.0
0
LINE
5
1afc
8
0-0
6
CONTINUOUS
62
  7
10
1396.258
20
803.440
30
0.0
11
1396.897
21
803.526
31
0.0
0
LINE
5
1afd
8
0-0
6
CONTINUOUS
62
  7
10
1396.897
20
803.526
30
0.0
11
1397.585
21
803.530
31
0.0
0
LINE
5
1afe
8
0-0
6
CONTINUOUS
62
  7
10
1397.585
20
803.530
30
0.0
11
1398.331
21
803.475
31
0.0
0
LINE
5
1aff
8
0-0
6
CONTINUOUS
62
  7
10
1398.331
20
803.475
30
0.0
11
1398.773
21
803.426
31
0.0
0
LINE
5
1b00
8
0-0
6
CONTINUOUS
62
  7
10
1398.773
20
803.426
30
0.0
11
1399.424
21
803.344
31
0.0
0
LINE
5
1b01
8
0-0
6
CONTINUOUS
62
  7
10
1399.424
20
803.344
30
0.0
11
1400.531
21
803.177
31
0.0
0
LINE
5
1b02
8
0-0
6
CONTINUOUS
62
  7
10
1400.531
20
803.177
30
0.0
11
1401.606
21
802.969
31
0.0
0
LINE
5
1b03
8
0-0
6
CONTINUOUS
62
  7
10
1401.606
20
802.969
30
0.0
11
1402.657
21
802.710
31
0.0
0
LINE
5
1b04
8
0-0
6
CONTINUOUS
62
  7
10
1402.657
20
802.710
30
0.0
11
1403.247
21
802.534
31
0.0
0
LINE
5
1b05
8
0-0
6
CONTINUOUS
62
  7
10
1403.247
20
802.534
30
0.0
11
1403.740
21
802.368
31
0.0
0
LINE
5
1b06
8
0-0
6
CONTINUOUS
62
  7
10
1403.740
20
802.368
30
0.0
11
1404.608
21
802.047
31
0.0
0
LINE
5
1b07
8
0-0
6
CONTINUOUS
62
  7
10
1404.608
20
802.047
30
0.0
11
1405.486
21
801.703
31
0.0
0
LINE
5
1b08
8
0-0
6
CONTINUOUS
62
  7
10
1405.486
20
801.703
30
0.0
11
1406.402
21
801.346
31
0.0
0
LINE
5
1b09
8
0-0
6
CONTINUOUS
62
  7
10
1406.402
20
801.346
30
0.0
11
1406.940
21
801.147
31
0.0
0
LINE
5
1b0a
8
0-0
6
CONTINUOUS
62
  7
10
1406.940
20
801.147
30
0.0
11
1407.564
21
800.931
31
0.0
0
LINE
5
1b0b
8
0-0
6
CONTINUOUS
62
  7
10
1407.564
20
800.931
30
0.0
11
1408.620
21
800.579
31
0.0
0
LINE
5
1b0c
8
0-0
6
CONTINUOUS
62
  7
10
1408.620
20
800.579
30
0.0
11
1409.632
21
800.219
31
0.0
0
LINE
5
1b0d
8
0-0
6
CONTINUOUS
62
  7
10
1409.632
20
800.219
30
0.0
11
1410.587
21
799.815
31
0.0
0
LINE
5
1b0e
8
0-0
6
CONTINUOUS
62
  7
10
1410.587
20
799.815
30
0.0
11
1411.096
21
799.552
31
0.0
0
LINE
5
1b0f
8
0-0
6
CONTINUOUS
62
  7
10
1411.096
20
799.552
30
0.0
11
1411.472
21
799.328
31
0.0
0
LINE
5
1b10
8
0-0
6
CONTINUOUS
62
  7
10
1411.472
20
799.328
30
0.0
11
1412.124
21
798.873
31
0.0
0
LINE
5
1b11
8
0-0
6
CONTINUOUS
62
  7
10
1412.124
20
798.873
30
0.0
11
1412.740
21
798.363
31
0.0
0
LINE
5
1b12
8
0-0
6
CONTINUOUS
62
  7
10
1412.740
20
798.363
30
0.0
11
1413.324
21
797.799
31
0.0
0
LINE
5
1b13
8
0-0
6
CONTINUOUS
62
  7
10
1413.324
20
797.799
30
0.0
11
1413.639
21
797.461
31
0.0
0
LINE
5
1b14
8
0-0
6
CONTINUOUS
62
  7
10
1413.639
20
797.461
30
0.0
11
1413.944
21
797.106
31
0.0
0
LINE
5
1b15
8
0-0
6
CONTINUOUS
62
  7
10
1413.944
20
797.106
30
0.0
11
1414.453
21
796.450
31
0.0
0
LINE
5
1b16
8
0-0
6
CONTINUOUS
62
  7
10
1414.453
20
796.450
30
0.0
11
1414.922
21
795.767
31
0.0
0
LINE
5
1b17
8
0-0
6
CONTINUOUS
62
  7
10
1414.922
20
795.767
30
0.0
11
1415.363
21
795.046
31
0.0
0
LINE
5
1b18
8
0-0
6
CONTINUOUS
62
  7
10
1415.363
20
795.046
30
0.0
11
1415.604
21
794.618
31
0.0
0
LINE
5
1b19
8
0-0
6
CONTINUOUS
62
  7
10
1415.604
20
794.618
30
0.0
11
1415.764
21
794.318
31
0.0
0
LINE
5
1b1a
8
0-0
6
CONTINUOUS
62
  7
10
1415.764
20
794.318
30
0.0
11
1416.020
21
793.790
31
0.0
0
LINE
5
1b1b
8
0-0
6
CONTINUOUS
62
  7
10
1416.020
20
793.790
30
0.0
11
1416.225
21
793.281
31
0.0
0
LINE
5
1b1c
8
0-0
6
CONTINUOUS
62
  7
10
1416.225
20
793.281
30
0.0
11
1416.373
21
792.774
31
0.0
0
LINE
5
1b1d
8
0-0
6
CONTINUOUS
62
  7
10
1416.373
20
792.774
30
0.0
11
1416.422
21
792.511
31
0.0
0
LINE
5
1b1e
8
0-0
6
CONTINUOUS
62
  7
10
1416.422
20
792.511
30
0.0
11
1416.451
21
792.220
31
0.0
0
LINE
5
1b1f
8
0-0
6
CONTINUOUS
62
  7
10
1416.451
20
792.220
30
0.0
11
1416.449
21
791.654
31
0.0
0
LINE
5
1b20
8
0-0
6
CONTINUOUS
62
  7
10
1416.449
20
791.654
30
0.0
11
1416.386
21
791.061
31
0.0
0
LINE
5
1b21
8
0-0
6
CONTINUOUS
62
  7
10
1416.386
20
791.061
30
0.0
11
1416.277
21
790.432
31
0.0
0
LINE
5
1b22
8
0-0
6
CONTINUOUS
62
  7
10
1416.277
20
790.432
30
0.0
11
1416.202
21
790.065
31
0.0
0
LINE
5
1b23
8
0-0
6
CONTINUOUS
62
  7
10
1416.202
20
790.065
30
0.0
11
1416.092
21
789.565
31
0.0
0
LINE
5
1b24
8
0-0
6
CONTINUOUS
62
  7
10
1416.092
20
789.565
30
0.0
11
1415.881
21
788.708
31
0.0
0
LINE
5
1b25
8
0-0
6
CONTINUOUS
62
  7
10
1415.881
20
788.708
30
0.0
11
1415.646
21
787.880
31
0.0
0
LINE
5
1b26
8
0-0
6
CONTINUOUS
62
  7
10
1415.646
20
787.880
30
0.0
11
1415.374
21
787.067
31
0.0
0
LINE
5
1b27
8
0-0
6
CONTINUOUS
62
  7
10
1415.374
20
787.067
30
0.0
11
1415.202
21
786.614
31
0.0
0
LINE
5
1b28
8
0-0
6
CONTINUOUS
62
  7
10
1415.202
20
786.614
30
0.0
11
1415.083
21
786.324
31
0.0
0
LINE
5
1b29
8
0-0
6
CONTINUOUS
62
  7
10
1415.083
20
786.324
30
0.0
11
1414.856
21
785.812
31
0.0
0
LINE
5
1b2a
8
0-0
6
CONTINUOUS
62
  7
10
1414.856
20
785.812
30
0.0
11
1414.614
21
785.306
31
0.0
0
LINE
5
1b2b
8
0-0
6
CONTINUOUS
62
  7
10
1414.614
20
785.306
30
0.0
11
1414.355
21
784.795
31
0.0
0
LINE
5
1b2c
8
0-0
6
CONTINUOUS
62
  7
10
1414.355
20
784.795
30
0.0
11
1414.199
21
784.500
31
0.0
0
LINE
5
1b2d
8
0-0
6
CONTINUOUS
62
  7
10
1414.199
20
784.500
30
0.0
11
1414.052
21
784.224
31
0.0
0
LINE
5
1b2e
8
0-0
6
CONTINUOUS
62
  7
10
1414.052
20
784.224
30
0.0
11
1413.798
21
783.744
31
0.0
0
LINE
5
1b2f
8
0-0
6
CONTINUOUS
62
  7
10
1413.798
20
783.744
30
0.0
11
1413.545
21
783.230
31
0.0
0
LINE
5
1b30
8
0-0
6
CONTINUOUS
62
  7
10
1413.545
20
783.230
30
0.0
11
1413.317
21
782.695
31
0.0
0
LINE
5
1b31
8
0-0
6
CONTINUOUS
62
  7
10
1413.317
20
782.695
30
0.0
11
1413.197
21
782.352
31
0.0
0
LINE
5
1b32
8
0-0
6
CONTINUOUS
62
  7
10
1413.197
20
782.352
30
0.0
11
1413.077
21
781.926
31
0.0
0
LINE
5
1b33
8
0-0
6
CONTINUOUS
62
  7
10
1413.077
20
781.926
30
0.0
11
1412.943
21
781.222
31
0.0
0
LINE
5
1b34
8
0-0
6
CONTINUOUS
62
  7
10
1412.943
20
781.222
30
0.0
11
1412.865
21
780.516
31
0.0
0
LINE
5
1b35
8
0-0
6
CONTINUOUS
62
  7
10
1412.865
20
780.516
30
0.0
11
1412.822
21
779.824
31
0.0
0
LINE
5
1b36
8
0-0
6
CONTINUOUS
62
  7
10
1412.822
20
779.824
30
0.0
11
1412.802
21
779.415
31
0.0
0
LINE
5
1b37
8
0-0
6
CONTINUOUS
62
  7
10
1412.802
20
779.415
30
0.0
11
1412.785
21
779.029
31
0.0
0
LINE
5
1b38
8
0-0
6
CONTINUOUS
62
  7
10
1412.785
20
779.029
30
0.0
11
1412.779
21
778.328
31
0.0
0
LINE
5
1b39
8
0-0
6
CONTINUOUS
62
  7
10
1412.779
20
778.328
30
0.0
11
1412.849
21
777.576
31
0.0
0
LINE
5
1b3a
8
0-0
6
CONTINUOUS
62
  7
10
1412.849
20
777.576
30
0.0
11
1413.065
21
776.826
31
0.0
0
LINE
5
1b3b
8
0-0
6
CONTINUOUS
62
  7
10
1413.065
20
776.826
30
0.0
11
1413.313
21
776.372
31
0.0
0
LINE
5
1b3c
8
0-0
6
CONTINUOUS
62
  7
10
1413.313
20
776.372
30
0.0
11
1413.559
21
776.059
31
0.0
0
LINE
5
1b3d
8
0-0
6
CONTINUOUS
62
  7
10
1413.559
20
776.059
30
0.0
11
1413.965
21
775.676
31
0.0
0
LINE
5
1b3e
8
0-0
6
CONTINUOUS
62
  7
10
1413.965
20
775.676
30
0.0
11
1414.380
21
775.364
31
0.0
0
LINE
5
1b3f
8
0-0
6
CONTINUOUS
62
  7
10
1414.380
20
775.364
30
0.0
11
1414.756
21
775.101
31
0.0
0
LINE
5
1b40
8
0-0
6
CONTINUOUS
62
  7
10
1414.756
20
775.101
30
0.0
11
1414.943
21
774.963
31
0.0
0
LINE
5
1b41
8
0-0
6
CONTINUOUS
62
  7
10
1414.943
20
774.963
30
0.0
11
1415.070
21
774.863
31
0.0
0
LINE
5
1b42
8
0-0
6
CONTINUOUS
62
  7
10
1415.070
20
774.863
30
0.0
11
1415.309
21
774.666
31
0.0
0
LINE
5
1b43
8
0-0
6
CONTINUOUS
62
  7
10
1415.309
20
774.666
30
0.0
11
1415.573
21
774.449
31
0.0
0
LINE
5
1b44
8
0-0
6
CONTINUOUS
62
  7
10
1415.573
20
774.449
30
0.0
11
1415.867
21
774.228
31
0.0
0
LINE
5
1b45
8
0-0
6
CONTINUOUS
62
  7
10
1415.867
20
774.228
30
0.0
11
1416.076
21
774.090
31
0.0
0
LINE
5
1b46
8
0-0
6
CONTINUOUS
62
  7
10
1416.076
20
774.090
30
0.0
11
1416.409
21
773.903
31
0.0
0
LINE
5
1b47
8
0-0
6
CONTINUOUS
62
  7
10
1416.409
20
773.903
30
0.0
11
1416.970
21
773.660
31
0.0
0
LINE
5
1b48
8
0-0
6
CONTINUOUS
62
  7
10
1416.970
20
773.660
30
0.0
11
1417.534
21
773.477
31
0.0
0
LINE
5
1b49
8
0-0
6
CONTINUOUS
62
  7
10
1417.534
20
773.477
30
0.0
11
1418.061
21
773.339
31
0.0
0
LINE
5
1b4a
8
0-0
6
CONTINUOUS
62
  7
10
1418.061
20
773.339
30
0.0
11
1418.349
21
773.271
31
0.0
0
LINE
5
1b4b
8
0-0
6
CONTINUOUS
62
  7
10
1418.349
20
773.271
30
0.0
11
1418.607
21
773.212
31
0.0
0
LINE
5
1b4c
8
0-0
6
CONTINUOUS
62
  7
10
1418.607
20
773.212
30
0.0
11
1418.432
21
773.113
31
0.0
0
LINE
5
1b4d
8
0-0
6
CONTINUOUS
62
  7
10
1418.432
20
773.113
30
0.0
11
1417.953
21
772.778
31
0.0
0
LINE
5
1b4e
8
0-0
6
CONTINUOUS
62
  7
10
1417.953
20
772.778
30
0.0
11
1417.673
21
772.539
31
0.0
0
LINE
5
1b4f
8
0-0
6
CONTINUOUS
62
  7
10
1417.673
20
772.539
30
0.0
11
1417.432
21
772.307
31
0.0
0
LINE
5
1b50
8
0-0
6
CONTINUOUS
62
  7
10
1417.432
20
772.307
30
0.0
11
1417.058
21
771.886
31
0.0
0
LINE
5
1b51
8
0-0
6
CONTINUOUS
62
  7
10
1417.058
20
771.886
30
0.0
11
1416.709
21
771.405
31
0.0
0
LINE
5
1b52
8
0-0
6
CONTINUOUS
62
  7
10
1416.709
20
771.405
30
0.0
11
1416.410
21
770.888
31
0.0
0
LINE
5
1b53
8
0-0
6
CONTINUOUS
62
  7
10
1416.410
20
770.888
30
0.0
11
1416.253
21
770.545
31
0.0
0
LINE
5
1b54
8
0-0
6
CONTINUOUS
62
  7
10
1416.253
20
770.545
30
0.0
11
1416.088
21
770.084
31
0.0
0
LINE
5
1b55
8
0-0
6
CONTINUOUS
62
  7
10
1416.088
20
770.084
30
0.0
11
1415.922
21
769.315
31
0.0
0
LINE
5
1b56
8
0-0
6
CONTINUOUS
62
  7
10
1415.922
20
769.315
30
0.0
11
1415.867
21
768.535
31
0.0
0
LINE
5
1b57
8
0-0
6
CONTINUOUS
62
  7
10
1415.867
20
768.535
30
0.0
11
1415.903
21
767.782
31
0.0
0
LINE
5
1b58
8
0-0
6
CONTINUOUS
62
  7
10
1415.903
20
767.782
30
0.0
11
1415.957
21
767.343
31
0.0
0
LINE
5
1b59
8
0-0
6
CONTINUOUS
62
  7
10
1415.957
20
767.343
30
0.0
11
1416.018
21
766.982
31
0.0
0
LINE
5
1b5a
8
0-0
6
CONTINUOUS
62
  7
10
1416.018
20
766.982
30
0.0
11
1416.156
21
766.385
31
0.0
0
LINE
5
1b5b
8
0-0
6
CONTINUOUS
62
  7
10
1416.156
20
766.385
30
0.0
11
1416.349
21
765.787
31
0.0
0
LINE
5
1b5c
8
0-0
6
CONTINUOUS
62
  7
10
1416.349
20
765.787
30
0.0
11
1416.601
21
765.214
31
0.0
0
LINE
5
1b5d
8
0-0
6
CONTINUOUS
62
  7
10
1416.601
20
765.214
30
0.0
11
1416.789
21
764.874
31
0.0
0
LINE
5
1b5e
8
0-0
6
CONTINUOUS
62
  7
10
1416.789
20
764.874
30
0.0
11
1417.020
21
764.520
31
0.0
0
LINE
5
1b5f
8
0-0
6
CONTINUOUS
62
  7
10
1417.020
20
764.520
30
0.0
11
1417.439
21
763.990
31
0.0
0
LINE
5
1b60
8
0-0
6
CONTINUOUS
62
  7
10
1417.439
20
763.990
30
0.0
11
1417.883
21
763.509
31
0.0
0
LINE
5
1b61
8
0-0
6
CONTINUOUS
62
  7
10
1417.883
20
763.509
30
0.0
11
1418.331
21
763.058
31
0.0
0
LINE
5
1b62
8
0-0
6
CONTINUOUS
62
  7
10
1418.331
20
763.058
30
0.0
11
1418.568
21
762.821
31
0.0
0
LINE
5
1b63
8
0-0
6
CONTINUOUS
62
  7
10
1418.568
20
762.821
30
0.0
11
1418.836
21
762.547
31
0.0
0
LINE
5
1b64
8
0-0
6
CONTINUOUS
62
  7
10
1418.836
20
762.547
30
0.0
11
1419.308
21
762.047
31
0.0
0
LINE
5
1b65
8
0-0
6
CONTINUOUS
62
  7
10
1419.308
20
762.047
30
0.0
11
1419.770
21
761.550
31
0.0
0
LINE
5
1b66
8
0-0
6
CONTINUOUS
62
  7
10
1419.770
20
761.550
30
0.0
11
1420.255
21
761.031
31
0.0
0
LINE
5
1b67
8
0-0
6
CONTINUOUS
62
  7
10
1420.255
20
761.031
30
0.0
11
1420.538
21
760.735
31
0.0
0
LINE
5
1b68
8
0-0
6
CONTINUOUS
62
  7
10
1420.538
20
760.735
30
0.0
11
1420.750
21
760.518
31
0.0
0
LINE
5
1b69
8
0-0
6
CONTINUOUS
62
  7
10
1420.750
20
760.518
30
0.0
11
1421.119
21
760.154
31
0.0
0
LINE
5
1b6a
8
0-0
6
CONTINUOUS
62
  7
10
1421.119
20
760.154
30
0.0
11
1421.505
21
759.794
31
0.0
0
LINE
5
1b6b
8
0-0
6
CONTINUOUS
62
  7
10
1421.505
20
759.794
30
0.0
11
1421.905
21
759.447
31
0.0
0
LINE
5
1b6c
8
0-0
6
CONTINUOUS
62
  7
10
1421.905
20
759.447
30
0.0
11
1422.153
21
759.246
31
0.0
0
LINE
5
1b6d
8
0-0
6
CONTINUOUS
62
  7
10
1422.153
20
759.246
30
0.0
11
1422.433
21
759.032
31
0.0
0
LINE
5
1b6e
8
0-0
6
CONTINUOUS
62
  7
10
1422.433
20
759.032
30
0.0
11
1422.898
21
758.694
31
0.0
0
LINE
5
1b6f
8
0-0
6
CONTINUOUS
62
  7
10
1422.898
20
758.694
30
0.0
11
1423.347
21
758.371
31
0.0
0
LINE
5
1b70
8
0-0
6
CONTINUOUS
62
  7
10
1423.347
20
758.371
30
0.0
11
1423.766
21
758.054
31
0.0
0
LINE
5
1b71
8
0-0
6
CONTINUOUS
62
  7
10
1423.766
20
758.054
30
0.0
11
1423.985
21
757.874
31
0.0
0
LINE
5
1b72
8
0-0
6
CONTINUOUS
62
  7
10
1423.985
20
757.874
30
0.0
11
1424.148
21
757.730
31
0.0
0
LINE
5
1b73
8
0-0
6
CONTINUOUS
62
  7
10
1424.148
20
757.730
30
0.0
11
1424.436
21
757.455
31
0.0
0
LINE
5
1b74
8
0-0
6
CONTINUOUS
62
  7
10
1424.436
20
757.455
30
0.0
11
1424.722
21
757.163
31
0.0
0
LINE
5
1b75
8
0-0
6
CONTINUOUS
62
  7
10
1424.722
20
757.163
30
0.0
11
1425.015
21
756.852
31
0.0
0
LINE
5
1b76
8
0-0
6
CONTINUOUS
62
  7
10
1425.015
20
756.852
30
0.0
11
1425.193
21
756.662
31
0.0
0
LINE
5
1b77
8
0-0
6
CONTINUOUS
62
  7
10
1425.193
20
756.662
30
0.0
11
1425.414
21
756.427
31
0.0
0
LINE
5
1b78
8
0-0
6
CONTINUOUS
62
  7
10
1425.414
20
756.427
30
0.0
11
1425.793
21
756.014
31
0.0
0
LINE
5
1b79
8
0-0
6
CONTINUOUS
62
  7
10
1425.793
20
756.014
30
0.0
11
1426.131
21
755.614
31
0.0
0
LINE
5
1b7a
8
0-0
6
CONTINUOUS
62
  7
10
1426.131
20
755.614
30
0.0
11
1426.428
21
755.210
31
0.0
0
LINE
5
1b7b
8
0-0
6
CONTINUOUS
62
  7
10
1426.428
20
755.210
30
0.0
11
1426.561
21
754.994
31
0.0
0
LINE
5
1b7c
8
0-0
6
CONTINUOUS
62
  7
10
1426.561
20
754.994
30
0.0
11
1426.724
21
754.680
31
0.0
0
LINE
5
1b7d
8
0-0
6
CONTINUOUS
62
  7
10
1426.724
20
754.680
30
0.0
11
1426.959
21
754.061
31
0.0
0
LINE
5
1b7e
8
0-0
6
CONTINUOUS
62
  7
10
1426.959
20
754.061
30
0.0
11
1427.120
21
753.402
31
0.0
0
LINE
5
1b7f
8
0-0
6
CONTINUOUS
62
  7
10
1427.120
20
753.402
30
0.0
11
1427.219
21
752.696
31
0.0
0
LINE
5
1b80
8
0-0
6
CONTINUOUS
62
  7
10
1427.219
20
752.696
30
0.0
11
1427.249
21
752.292
31
0.0
0
LINE
5
1b81
8
0-0
6
CONTINUOUS
62
  7
10
1427.249
20
752.292
30
0.0
11
1427.261
21
751.848
31
0.0
0
LINE
5
1b82
8
0-0
6
CONTINUOUS
62
  7
10
1427.261
20
751.848
30
0.0
11
1427.255
21
751.648
31
0.0
0
LINE
5
1b83
8
0-0
6
CONTINUOUS
62
  7
10
1398.835
20
864.258
30
0.0
11
1398.897
21
864.101
31
0.0
0
LINE
5
1b84
8
0-0
6
CONTINUOUS
62
  7
10
1398.897
20
864.101
30
0.0
11
1399.287
21
863.216
31
0.0
0
LINE
5
1b85
8
0-0
6
CONTINUOUS
62
  7
10
1399.287
20
863.216
30
0.0
11
1399.717
21
862.352
31
0.0
0
LINE
5
1b86
8
0-0
6
CONTINUOUS
62
  7
10
1399.717
20
862.352
30
0.0
11
1400.188
21
861.504
31
0.0
0
LINE
5
1b87
8
0-0
6
CONTINUOUS
62
  7
10
1400.188
20
861.504
30
0.0
11
1400.466
21
861.041
31
0.0
0
LINE
5
1b88
8
0-0
6
CONTINUOUS
62
  7
10
1400.466
20
861.041
30
0.0
11
1401.657
21
859.284
31
0.0
0
LINE
5
1b89
8
0-0
6
CONTINUOUS
62
  7
10
1401.657
20
859.284
30
0.0
11
1404.021
21
856.428
31
0.0
0
LINE
5
1b8a
8
0-0
6
CONTINUOUS
62
  7
10
1404.021
20
856.428
30
0.0
11
1406.635
21
853.718
31
0.0
0
LINE
5
1b8b
8
0-0
6
CONTINUOUS
62
  7
10
1406.635
20
853.718
30
0.0
11
1409.351
21
851.039
31
0.0
0
LINE
5
1b8c
8
0-0
6
CONTINUOUS
62
  7
10
1409.351
20
851.039
30
0.0
11
1410.911
21
849.454
31
0.0
0
LINE
5
1b8d
8
0-0
6
CONTINUOUS
62
  7
10
1410.911
20
849.454
30
0.0
11
1412.448
21
847.798
31
0.0
0
LINE
5
1b8e
8
0-0
6
CONTINUOUS
62
  7
10
1412.448
20
847.798
30
0.0
11
1414.957
21
844.855
31
0.0
0
LINE
5
1b8f
8
0-0
6
CONTINUOUS
62
  7
10
1414.957
20
844.855
30
0.0
11
1417.330
21
841.779
31
0.0
0
LINE
5
1b90
8
0-0
6
CONTINUOUS
62
  7
10
1417.330
20
841.779
30
0.0
11
1419.597
21
838.569
31
0.0
0
LINE
5
1b91
8
0-0
6
CONTINUOUS
62
  7
10
1419.597
20
838.569
30
0.0
11
1420.887
21
836.630
31
0.0
0
LINE
5
1b92
8
0-0
6
CONTINUOUS
62
  7
10
1420.887
20
836.630
30
0.0
11
1422.198
21
834.567
31
0.0
0
LINE
5
1b93
8
0-0
6
CONTINUOUS
62
  7
10
1422.198
20
834.567
30
0.0
11
1424.285
21
830.872
31
0.0
0
LINE
5
1b94
8
0-0
6
CONTINUOUS
62
  7
10
1424.285
20
830.872
30
0.0
11
1425.932
21
826.992
31
0.0
0
LINE
5
1b95
8
0-0
6
CONTINUOUS
62
  7
10
1425.932
20
826.992
30
0.0
11
1426.843
21
822.973
31
0.0
0
LINE
5
1b96
8
0-0
6
CONTINUOUS
62
  7
10
1426.843
20
822.973
30
0.0
11
1426.919
21
820.557
31
0.0
0
LINE
5
1b97
8
0-0
6
CONTINUOUS
62
  7
10
1426.919
20
820.557
30
0.0
11
1426.766
21
819.027
31
0.0
0
LINE
5
1b98
8
0-0
6
CONTINUOUS
62
  7
10
1426.766
20
819.027
30
0.0
11
1426.187
21
816.497
31
0.0
0
LINE
5
1b99
8
0-0
6
CONTINUOUS
62
  7
10
1426.187
20
816.497
30
0.0
11
1425.254
21
814.033
31
0.0
0
LINE
5
1b9a
8
0-0
6
CONTINUOUS
62
  7
10
1425.254
20
814.033
30
0.0
11
1424.043
21
811.702
31
0.0
0
LINE
5
1b9b
8
0-0
6
CONTINUOUS
62
  7
10
1424.043
20
811.702
30
0.0
11
1423.224
21
810.402
31
0.0
0
LINE
5
1b9c
8
0-0
6
CONTINUOUS
62
  7
10
1423.224
20
810.402
30
0.0
11
1421.917
21
808.619
31
0.0
0
LINE
5
1b9d
8
0-0
6
CONTINUOUS
62
  7
10
1421.917
20
808.619
30
0.0
11
1419.432
21
805.839
31
0.0
0
LINE
5
1b9e
8
0-0
6
CONTINUOUS
62
  7
10
1419.432
20
805.839
30
0.0
11
1416.713
21
803.317
31
0.0
0
LINE
5
1b9f
8
0-0
6
CONTINUOUS
62
  7
10
1416.713
20
803.317
30
0.0
11
1413.873
21
800.969
31
0.0
0
LINE
5
1ba0
8
0-0
6
CONTINUOUS
62
  7
10
1413.873
20
800.969
30
0.0
11
1413.309
21
800.521
31
0.0
0
LINE
5
1ba1
8
0-0
6
CONTINUOUS
62
  7
10
1396.822
20
863.912
30
0.0
11
1397.052
21
863.329
31
0.0
0
LINE
5
1ba2
8
0-0
6
CONTINUOUS
62
  7
10
1397.052
20
863.329
30
0.0
11
1397.476
21
862.367
31
0.0
0
LINE
5
1ba3
8
0-0
6
CONTINUOUS
62
  7
10
1397.476
20
862.367
30
0.0
11
1397.946
21
861.422
31
0.0
0
LINE
5
1ba4
8
0-0
6
CONTINUOUS
62
  7
10
1397.946
20
861.422
30
0.0
11
1398.456
21
860.504
31
0.0
0
LINE
5
1ba5
8
0-0
6
CONTINUOUS
62
  7
10
1398.456
20
860.504
30
0.0
11
1398.780
21
859.963
31
0.0
0
LINE
5
1ba6
8
0-0
6
CONTINUOUS
62
  7
10
1398.780
20
859.963
30
0.0
11
1400.055
21
858.083
31
0.0
0
LINE
5
1ba7
8
0-0
6
CONTINUOUS
62
  7
10
1400.055
20
858.083
30
0.0
11
1402.528
21
855.094
31
0.0
0
LINE
5
1ba8
8
0-0
6
CONTINUOUS
62
  7
10
1402.528
20
855.094
30
0.0
11
1405.213
21
852.312
31
0.0
0
LINE
5
1ba9
8
0-0
6
CONTINUOUS
62
  7
10
1405.213
20
852.312
30
0.0
11
1407.935
21
849.626
31
0.0
0
LINE
5
1baa
8
0-0
6
CONTINUOUS
62
  7
10
1407.935
20
849.626
30
0.0
11
1409.465
21
848.072
31
0.0
0
LINE
5
1bab
8
0-0
6
CONTINUOUS
62
  7
10
1409.465
20
848.072
30
0.0
11
1410.954
21
846.468
31
0.0
0
LINE
5
1bac
8
0-0
6
CONTINUOUS
62
  7
10
1410.954
20
846.468
30
0.0
11
1413.403
21
843.596
31
0.0
0
LINE
5
1bad
8
0-0
6
CONTINUOUS
62
  7
10
1413.403
20
843.596
30
0.0
11
1415.720
21
840.591
31
0.0
0
LINE
5
1bae
8
0-0
6
CONTINUOUS
62
  7
10
1415.720
20
840.591
30
0.0
11
1417.949
21
837.437
31
0.0
0
LINE
5
1baf
8
0-0
6
CONTINUOUS
62
  7
10
1417.949
20
837.437
30
0.0
11
1419.210
21
835.541
31
0.0
0
LINE
5
1bb0
8
0-0
6
CONTINUOUS
62
  7
10
1419.210
20
835.541
30
0.0
11
1420.482
21
833.538
31
0.0
0
LINE
5
1bb1
8
0-0
6
CONTINUOUS
62
  7
10
1420.482
20
833.538
30
0.0
11
1422.488
21
829.987
31
0.0
0
LINE
5
1bb2
8
0-0
6
CONTINUOUS
62
  7
10
1422.488
20
829.987
30
0.0
11
1424.021
21
826.375
31
0.0
0
LINE
5
1bb3
8
0-0
6
CONTINUOUS
62
  7
10
1424.021
20
826.375
30
0.0
11
1424.850
21
822.719
31
0.0
0
LINE
5
1bb4
8
0-0
6
CONTINUOUS
62
  7
10
1424.850
20
822.719
30
0.0
11
1424.916
21
820.624
31
0.0
0
LINE
5
1bb5
8
0-0
6
CONTINUOUS
62
  7
10
1424.916
20
820.624
30
0.0
11
1424.789
21
819.352
31
0.0
0
LINE
5
1bb6
8
0-0
6
CONTINUOUS
62
  7
10
1424.789
20
819.352
30
0.0
11
1424.268
21
817.077
31
0.0
0
LINE
5
1bb7
8
0-0
6
CONTINUOUS
62
  7
10
1424.268
20
817.077
30
0.0
11
1423.425
21
814.850
31
0.0
0
LINE
5
1bb8
8
0-0
6
CONTINUOUS
62
  7
10
1423.425
20
814.850
30
0.0
11
1422.306
21
812.697
31
0.0
0
LINE
5
1bb9
8
0-0
6
CONTINUOUS
62
  7
10
1422.306
20
812.697
30
0.0
11
1421.569
21
811.527
31
0.0
0
LINE
5
1bba
8
0-0
6
CONTINUOUS
62
  7
10
1421.569
20
811.527
30
0.0
11
1420.362
21
809.879
31
0.0
0
LINE
5
1bbb
8
0-0
6
CONTINUOUS
62
  7
10
1420.362
20
809.879
30
0.0
11
1418.004
21
807.242
31
0.0
0
LINE
5
1bbc
8
0-0
6
CONTINUOUS
62
  7
10
1418.004
20
807.242
30
0.0
11
1415.396
21
804.823
31
0.0
0
LINE
5
1bbd
8
0-0
6
CONTINUOUS
62
  7
10
1415.396
20
804.823
30
0.0
11
1412.613
21
802.522
31
0.0
0
LINE
5
1bbe
8
0-0
6
CONTINUOUS
62
  7
10
1412.613
20
802.522
30
0.0
11
1411.455
21
801.604
31
0.0
0
LINE
5
1bbf
8
0-0
6
CONTINUOUS
62
  7
10
1400.137
20
791.349
30
0.0
11
1400.667
21
791.075
31
0.0
0
LINE
5
1bc0
8
0-0
6
CONTINUOUS
62
  7
10
1400.667
20
791.075
30
0.0
11
1401.182
21
790.752
31
0.0
0
LINE
5
1bc1
8
0-0
6
CONTINUOUS
62
  7
10
1401.182
20
790.752
30
0.0
11
1401.969
21
790.120
31
0.0
0
LINE
5
1bc2
8
0-0
6
CONTINUOUS
62
  7
10
1401.969
20
790.120
30
0.0
11
1402.651
21
789.354
31
0.0
0
LINE
5
1bc3
8
0-0
6
CONTINUOUS
62
  7
10
1402.651
20
789.354
30
0.0
11
1403.152
21
788.486
31
0.0
0
LINE
5
1bc4
8
0-0
6
CONTINUOUS
62
  7
10
1403.152
20
788.486
30
0.0
11
1403.358
21
787.885
31
0.0
0
LINE
5
1bc5
8
0-0
6
CONTINUOUS
62
  7
10
1403.358
20
787.885
30
0.0
11
1403.469
21
787.190
31
0.0
0
LINE
5
1bc6
8
0-0
6
CONTINUOUS
62
  7
10
1403.469
20
787.190
30
0.0
11
1403.402
21
786.077
31
0.0
0
LINE
5
1bc7
8
0-0
6
CONTINUOUS
62
  7
10
1403.402
20
786.077
30
0.0
11
1403.095
21
784.988
31
0.0
0
LINE
5
1bc8
8
0-0
6
CONTINUOUS
62
  7
10
1403.095
20
784.988
30
0.0
11
1402.634
21
783.973
31
0.0
0
LINE
5
1bc9
8
0-0
6
CONTINUOUS
62
  7
10
1402.634
20
783.973
30
0.0
11
1402.308
21
783.397
31
0.0
0
LINE
5
1bca
8
0-0
6
CONTINUOUS
62
  7
10
1402.308
20
783.397
30
0.0
11
1401.903
21
782.770
31
0.0
0
LINE
5
1bcb
8
0-0
6
CONTINUOUS
62
  7
10
1401.903
20
782.770
30
0.0
11
1401.127
21
781.782
31
0.0
0
LINE
5
1bcc
8
0-0
6
CONTINUOUS
62
  7
10
1401.127
20
781.782
30
0.0
11
1400.207
21
780.919
31
0.0
0
LINE
5
1bcd
8
0-0
6
CONTINUOUS
62
  7
10
1400.207
20
780.919
30
0.0
11
1399.157
21
780.280
31
0.0
0
LINE
5
1bce
8
0-0
6
CONTINUOUS
62
  7
10
1399.157
20
780.280
30
0.0
11
1398.423
21
780.024
31
0.0
0
LINE
5
1bcf
8
0-0
6
CONTINUOUS
62
  7
10
1398.423
20
780.024
30
0.0
11
1397.466
21
779.896
31
0.0
0
LINE
5
1bd0
8
0-0
6
CONTINUOUS
62
  7
10
1397.466
20
779.896
30
0.0
11
1395.913
21
780.095
31
0.0
0
LINE
5
1bd1
8
0-0
6
CONTINUOUS
62
  7
10
1395.913
20
780.095
30
0.0
11
1394.406
21
780.657
31
0.0
0
LINE
5
1bd2
8
0-0
6
CONTINUOUS
62
  7
10
1394.406
20
780.657
30
0.0
11
1393.017
21
781.425
31
0.0
0
LINE
5
1bd3
8
0-0
6
CONTINUOUS
62
  7
10
1393.017
20
781.425
30
0.0
11
1392.259
21
781.929
31
0.0
0
LINE
5
1bd4
8
0-0
6
CONTINUOUS
62
  7
10
1392.259
20
781.929
30
0.0
11
1391.575
21
782.429
31
0.0
0
LINE
5
1bd5
8
0-0
6
CONTINUOUS
62
  7
10
1391.575
20
782.429
30
0.0
11
1390.504
21
783.313
31
0.0
0
LINE
5
1bd6
8
0-0
6
CONTINUOUS
62
  7
10
1390.504
20
783.313
30
0.0
11
1389.519
21
784.251
31
0.0
0
LINE
5
1bd7
8
0-0
6
CONTINUOUS
62
  7
10
1389.519
20
784.251
30
0.0
11
1388.608
21
785.238
31
0.0
0
LINE
5
1bd8
8
0-0
6
CONTINUOUS
62
  7
10
1388.608
20
785.238
30
0.0
11
1388.099
21
785.840
31
0.0
0
LINE
5
1bd9
8
0-0
6
CONTINUOUS
62
  7
10
1388.099
20
785.840
30
0.0
11
1387.875
21
786.117
31
0.0
0
LINE
5
1bda
8
0-0
6
CONTINUOUS
62
  7
10
1387.875
20
786.117
30
0.0
11
1387.500
21
786.609
31
0.0
0
LINE
5
1bdb
8
0-0
6
CONTINUOUS
62
  7
10
1387.500
20
786.609
30
0.0
11
1387.141
21
787.143
31
0.0
0
LINE
5
1bdc
8
0-0
6
CONTINUOUS
62
  7
10
1387.141
20
787.143
30
0.0
11
1386.825
21
787.713
31
0.0
0
LINE
5
1bdd
8
0-0
6
CONTINUOUS
62
  7
10
1386.825
20
787.713
30
0.0
11
1386.660
21
788.083
31
0.0
0
LINE
5
1bde
8
0-0
6
CONTINUOUS
62
  7
10
1386.660
20
788.083
30
0.0
11
1386.540
21
788.414
31
0.0
0
LINE
5
1bdf
8
0-0
6
CONTINUOUS
62
  7
10
1386.540
20
788.414
30
0.0
11
1386.387
21
788.948
31
0.0
0
LINE
5
1be0
8
0-0
6
CONTINUOUS
62
  7
10
1386.387
20
788.948
30
0.0
11
1386.273
21
789.479
31
0.0
0
LINE
5
1be1
8
0-0
6
CONTINUOUS
62
  7
10
1386.273
20
789.479
30
0.0
11
1386.183
21
789.987
31
0.0
0
LINE
5
1be2
8
0-0
6
CONTINUOUS
62
  7
10
1386.183
20
789.987
30
0.0
11
1386.133
21
790.292
31
0.0
0
LINE
5
1be3
8
0-0
6
CONTINUOUS
62
  7
10
1386.133
20
790.292
30
0.0
11
1386.091
21
790.542
31
0.0
0
LINE
5
1be4
8
0-0
6
CONTINUOUS
62
  7
10
1386.091
20
790.542
30
0.0
11
1386.016
21
790.998
31
0.0
0
LINE
5
1be5
8
0-0
6
CONTINUOUS
62
  7
10
1386.016
20
790.998
30
0.0
11
1385.949
21
791.479
31
0.0
0
LINE
5
1be6
8
0-0
6
CONTINUOUS
62
  7
10
1385.949
20
791.479
30
0.0
11
1385.903
21
791.974
31
0.0
0
LINE
5
1be7
8
0-0
6
CONTINUOUS
62
  7
10
1385.903
20
791.974
30
0.0
11
1385.889
21
792.280
31
0.0
0
LINE
5
1be8
8
0-0
6
CONTINUOUS
62
  7
10
1385.889
20
792.280
30
0.0
11
1385.888
21
792.606
31
0.0
0
LINE
5
1be9
8
0-0
6
CONTINUOUS
62
  7
10
1385.888
20
792.606
30
0.0
11
1385.919
21
793.148
31
0.0
0
LINE
5
1bea
8
0-0
6
CONTINUOUS
62
  7
10
1385.919
20
793.148
30
0.0
11
1385.986
21
793.685
31
0.0
0
LINE
5
1beb
8
0-0
6
CONTINUOUS
62
  7
10
1385.986
20
793.685
30
0.0
11
1386.081
21
794.208
31
0.0
0
LINE
5
1bec
8
0-0
6
CONTINUOUS
62
  7
10
1386.081
20
794.208
30
0.0
11
1386.150
21
794.520
31
0.0
0
LINE
5
1bed
8
0-0
6
CONTINUOUS
62
  7
10
1386.150
20
794.520
30
0.0
11
1386.324
21
795.174
31
0.0
0
LINE
5
1bee
8
0-0
6
CONTINUOUS
62
  7
10
1386.324
20
795.174
30
0.0
11
1386.705
21
796.262
31
0.0
0
LINE
5
1bef
8
0-0
6
CONTINUOUS
62
  7
10
1386.705
20
796.262
30
0.0
11
1387.198
21
797.317
31
0.0
0
LINE
5
1bf0
8
0-0
6
CONTINUOUS
62
  7
10
1387.198
20
797.317
30
0.0
11
1387.792
21
798.304
31
0.0
0
LINE
5
1bf1
8
0-0
6
CONTINUOUS
62
  7
10
1387.792
20
798.304
30
0.0
11
1388.192
21
798.853
31
0.0
0
LINE
5
1bf2
8
0-0
6
CONTINUOUS
62
  7
10
1388.192
20
798.853
30
0.0
11
1388.419
21
799.135
31
0.0
0
LINE
5
1bf3
8
0-0
6
CONTINUOUS
62
  7
10
1388.419
20
799.135
30
0.0
11
1388.801
21
799.577
31
0.0
0
LINE
5
1bf4
8
0-0
6
CONTINUOUS
62
  7
10
1388.801
20
799.577
30
0.0
11
1389.173
21
799.993
31
0.0
0
LINE
5
1bf5
8
0-0
6
CONTINUOUS
62
  7
10
1389.173
20
799.993
30
0.0
11
1389.537
21
800.403
31
0.0
0
LINE
5
1bf6
8
0-0
6
CONTINUOUS
62
  7
10
1389.537
20
800.403
30
0.0
11
1389.731
21
800.631
31
0.0
0
LINE
5
1bf7
8
0-0
6
CONTINUOUS
62
  7
10
1389.731
20
800.631
30
0.0
11
1389.941
21
800.891
31
0.0
0
LINE
5
1bf8
8
0-0
6
CONTINUOUS
62
  7
10
1389.941
20
800.891
30
0.0
11
1390.318
21
801.378
31
0.0
0
LINE
5
1bf9
8
0-0
6
CONTINUOUS
62
  7
10
1390.318
20
801.378
30
0.0
11
1390.713
21
801.881
31
0.0
0
LINE
5
1bfa
8
0-0
6
CONTINUOUS
62
  7
10
1390.713
20
801.881
30
0.0
11
1391.144
21
802.387
31
0.0
0
LINE
5
1bfb
8
0-0
6
CONTINUOUS
62
  7
10
1391.144
20
802.387
30
0.0
11
1391.426
21
802.682
31
0.0
0
LINE
5
1bfc
8
0-0
6
CONTINUOUS
62
  7
10
1391.426
20
802.682
30
0.0
11
1391.672
21
802.914
31
0.0
0
LINE
5
1bfd
8
0-0
6
CONTINUOUS
62
  7
10
1391.672
20
802.914
30
0.0
11
1392.088
21
803.268
31
0.0
0
LINE
5
1bfe
8
0-0
6
CONTINUOUS
62
  7
10
1392.088
20
803.268
30
0.0
11
1392.519
21
803.599
31
0.0
0
LINE
5
1bff
8
0-0
6
CONTINUOUS
62
  7
10
1392.519
20
803.599
30
0.0
11
1392.945
21
803.904
31
0.0
0
LINE
5
1c00
8
0-0
6
CONTINUOUS
62
  7
10
1392.945
20
803.904
30
0.0
11
1393.191
21
804.074
31
0.0
0
LINE
5
1c01
8
0-0
6
CONTINUOUS
62
  7
10
1393.191
20
804.074
30
0.0
11
1393.455
21
804.257
31
0.0
0
LINE
5
1c02
8
0-0
6
CONTINUOUS
62
  7
10
1393.455
20
804.257
30
0.0
11
1393.918
21
804.562
31
0.0
0
LINE
5
1c03
8
0-0
6
CONTINUOUS
62
  7
10
1393.918
20
804.562
30
0.0
11
1394.421
21
804.858
31
0.0
0
LINE
5
1c04
8
0-0
6
CONTINUOUS
62
  7
10
1394.421
20
804.858
30
0.0
11
1394.956
21
805.117
31
0.0
0
LINE
5
1c05
8
0-0
6
CONTINUOUS
62
  7
10
1394.956
20
805.117
30
0.0
11
1395.315
21
805.254
31
0.0
0
LINE
5
1c06
8
0-0
6
CONTINUOUS
62
  7
10
1395.315
20
805.254
30
0.0
11
1395.856
21
805.403
31
0.0
0
LINE
5
1c07
8
0-0
6
CONTINUOUS
62
  7
10
1395.856
20
805.403
30
0.0
11
1396.756
21
805.525
31
0.0
0
LINE
5
1c08
8
0-0
6
CONTINUOUS
62
  7
10
1396.756
20
805.525
30
0.0
11
1397.654
21
805.531
31
0.0
0
LINE
5
1c09
8
0-0
6
CONTINUOUS
62
  7
10
1397.654
20
805.531
30
0.0
11
1398.515
21
805.467
31
0.0
0
LINE
5
1c0a
8
0-0
6
CONTINUOUS
62
  7
10
1398.515
20
805.467
30
0.0
11
1399.005
21
805.412
31
0.0
0
LINE
5
1c0b
8
0-0
6
CONTINUOUS
62
  7
10
1399.005
20
805.412
30
0.0
11
1399.697
21
805.326
31
0.0
0
LINE
5
1c0c
8
0-0
6
CONTINUOUS
62
  7
10
1399.697
20
805.326
30
0.0
11
1400.871
21
805.148
31
0.0
0
LINE
5
1c0d
8
0-0
6
CONTINUOUS
62
  7
10
1400.871
20
805.148
30
0.0
11
1402.035
21
804.923
31
0.0
0
LINE
5
1c0e
8
0-0
6
CONTINUOUS
62
  7
10
1402.035
20
804.923
30
0.0
11
1403.183
21
804.640
31
0.0
0
LINE
5
1c0f
8
0-0
6
CONTINUOUS
62
  7
10
1403.183
20
804.640
30
0.0
11
1403.851
21
804.441
31
0.0
0
LINE
5
1c10
8
0-0
6
CONTINUOUS
62
  7
10
1403.851
20
804.441
30
0.0
11
1404.403
21
804.256
31
0.0
0
LINE
5
1c11
8
0-0
6
CONTINUOUS
62
  7
10
1404.403
20
804.256
30
0.0
11
1405.324
21
803.915
31
0.0
0
LINE
5
1c12
8
0-0
6
CONTINUOUS
62
  7
10
1405.324
20
803.915
30
0.0
11
1406.230
21
803.559
31
0.0
0
LINE
5
1c13
8
0-0
6
CONTINUOUS
62
  7
10
1406.230
20
803.559
30
0.0
11
1407.105
21
803.219
31
0.0
0
LINE
5
1c14
8
0-0
6
CONTINUOUS
62
  7
10
1407.105
20
803.219
30
0.0
11
1407.614
21
803.031
31
0.0
0
LINE
5
1c15
8
0-0
6
CONTINUOUS
62
  7
10
1407.614
20
803.031
30
0.0
11
1408.213
21
802.823
31
0.0
0
LINE
5
1c16
8
0-0
6
CONTINUOUS
62
  7
10
1408.213
20
802.823
30
0.0
11
1409.275
21
802.469
31
0.0
0
LINE
5
1c17
8
0-0
6
CONTINUOUS
62
  7
10
1409.275
20
802.469
30
0.0
11
1410.357
21
802.084
31
0.0
0
LINE
5
1c18
8
0-0
6
CONTINUOUS
62
  7
10
1410.357
20
802.084
30
0.0
11
1411.437
21
801.627
31
0.0
0
LINE
5
1c19
8
0-0
6
CONTINUOUS
62
  7
10
1411.437
20
801.627
30
0.0
11
1411.471
21
801.609
31
0.0
0
LINE
5
1c1a
8
0-0
6
CONTINUOUS
62
  7
10
1413.292
20
800.497
30
0.0
11
1413.337
21
800.465
31
0.0
0
LINE
5
1c1b
8
0-0
6
CONTINUOUS
62
  7
10
1413.337
20
800.465
30
0.0
11
1414.073
21
799.855
31
0.0
0
LINE
5
1c1c
8
0-0
6
CONTINUOUS
62
  7
10
1414.073
20
799.855
30
0.0
11
1414.752
21
799.200
31
0.0
0
LINE
5
1c1d
8
0-0
6
CONTINUOUS
62
  7
10
1414.752
20
799.200
30
0.0
11
1415.129
21
798.795
31
0.0
0
LINE
5
1c1e
8
0-0
6
CONTINUOUS
62
  7
10
1415.129
20
798.795
30
0.0
11
1415.494
21
798.371
31
0.0
0
LINE
5
1c1f
8
0-0
6
CONTINUOUS
62
  7
10
1415.494
20
798.371
30
0.0
11
1416.068
21
797.631
31
0.0
0
LINE
5
1c20
8
0-0
6
CONTINUOUS
62
  7
10
1416.068
20
797.631
30
0.0
11
1416.601
21
796.855
31
0.0
0
LINE
5
1c21
8
0-0
6
CONTINUOUS
62
  7
10
1416.601
20
796.855
30
0.0
11
1417.088
21
796.059
31
0.0
0
LINE
5
1c22
8
0-0
6
CONTINUOUS
62
  7
10
1417.088
20
796.059
30
0.0
11
1417.358
21
795.580
31
0.0
0
LINE
5
1c23
8
0-0
6
CONTINUOUS
62
  7
10
1417.358
20
795.580
30
0.0
11
1417.547
21
795.225
31
0.0
0
LINE
5
1c24
8
0-0
6
CONTINUOUS
62
  7
10
1417.547
20
795.225
30
0.0
11
1417.850
21
794.602
31
0.0
0
LINE
5
1c25
8
0-0
6
CONTINUOUS
62
  7
10
1417.850
20
794.602
30
0.0
11
1418.118
21
793.934
31
0.0
0
LINE
5
1c26
8
0-0
6
CONTINUOUS
62
  7
10
1418.118
20
793.934
30
0.0
11
1418.320
21
793.240
31
0.0
0
LINE
5
1c27
8
0-0
6
CONTINUOUS
62
  7
10
1418.320
20
793.240
30
0.0
11
1418.404
21
792.794
31
0.0
0
LINE
5
1c28
8
0-0
6
CONTINUOUS
62
  7
10
1418.404
20
792.794
30
0.0
11
1418.451
21
792.317
31
0.0
0
LINE
5
1c29
8
0-0
6
CONTINUOUS
62
  7
10
1418.451
20
792.317
30
0.0
11
1418.448
21
791.543
31
0.0
0
LINE
5
1c2a
8
0-0
6
CONTINUOUS
62
  7
10
1418.448
20
791.543
30
0.0
11
1418.368
21
790.785
31
0.0
0
LINE
5
1c2b
8
0-0
6
CONTINUOUS
62
  7
10
1418.368
20
790.785
30
0.0
11
1418.243
21
790.061
31
0.0
0
LINE
5
1c2c
8
0-0
6
CONTINUOUS
62
  7
10
1418.243
20
790.061
30
0.0
11
1418.158
21
789.648
31
0.0
0
LINE
5
1c2d
8
0-0
6
CONTINUOUS
62
  7
10
1418.158
20
789.648
30
0.0
11
1418.039
21
789.109
31
0.0
0
LINE
5
1c2e
8
0-0
6
CONTINUOUS
62
  7
10
1418.039
20
789.109
30
0.0
11
1417.816
21
788.198
31
0.0
0
LINE
5
1c2f
8
0-0
6
CONTINUOUS
62
  7
10
1417.816
20
788.198
30
0.0
11
1417.557
21
787.288
31
0.0
0
LINE
5
1c30
8
0-0
6
CONTINUOUS
62
  7
10
1417.557
20
787.288
30
0.0
11
1417.259
21
786.396
31
0.0
0
LINE
5
1c31
8
0-0
6
CONTINUOUS
62
  7
10
1417.259
20
786.396
30
0.0
11
1417.061
21
785.876
31
0.0
0
LINE
5
1c32
8
0-0
6
CONTINUOUS
62
  7
10
1417.061
20
785.876
30
0.0
11
1416.922
21
785.537
31
0.0
0
LINE
5
1c33
8
0-0
6
CONTINUOUS
62
  7
10
1416.922
20
785.537
30
0.0
11
1416.674
21
784.978
31
0.0
0
LINE
5
1c34
8
0-0
6
CONTINUOUS
62
  7
10
1416.674
20
784.978
30
0.0
11
1416.408
21
784.422
31
0.0
0
LINE
5
1c35
8
0-0
6
CONTINUOUS
62
  7
10
1416.408
20
784.422
30
0.0
11
1416.132
21
783.877
31
0.0
0
LINE
5
1c36
8
0-0
6
CONTINUOUS
62
  7
10
1416.132
20
783.877
30
0.0
11
1415.966
21
783.562
31
0.0
0
LINE
5
1c37
8
0-0
6
CONTINUOUS
62
  7
10
1415.966
20
783.562
30
0.0
11
1415.822
21
783.293
31
0.0
0
LINE
5
1c38
8
0-0
6
CONTINUOUS
62
  7
10
1415.822
20
783.293
30
0.0
11
1415.578
21
782.832
31
0.0
0
LINE
5
1c39
8
0-0
6
CONTINUOUS
62
  7
10
1415.578
20
782.832
30
0.0
11
1415.363
21
782.397
31
0.0
0
LINE
5
1c3a
8
0-0
6
CONTINUOUS
62
  7
10
1415.363
20
782.397
30
0.0
11
1415.183
21
781.972
31
0.0
0
LINE
5
1c3b
8
0-0
6
CONTINUOUS
62
  7
10
1415.183
20
781.972
30
0.0
11
1415.105
21
781.749
31
0.0
0
LINE
5
1c3c
8
0-0
6
CONTINUOUS
62
  7
10
1415.105
20
781.749
30
0.0
11
1415.026
21
781.468
31
0.0
0
LINE
5
1c3d
8
0-0
6
CONTINUOUS
62
  7
10
1415.026
20
781.468
30
0.0
11
1414.922
21
780.924
31
0.0
0
LINE
5
1c3e
8
0-0
6
CONTINUOUS
62
  7
10
1414.922
20
780.924
30
0.0
11
1414.858
21
780.345
31
0.0
0
LINE
5
1c3f
8
0-0
6
CONTINUOUS
62
  7
10
1414.858
20
780.345
30
0.0
11
1414.818
21
779.709
31
0.0
0
LINE
5
1c40
8
0-0
6
CONTINUOUS
62
  7
10
1414.818
20
779.709
30
0.0
11
1414.800
21
779.327
31
0.0
0
LINE
5
1c41
8
0-0
6
CONTINUOUS
62
  7
10
1414.800
20
779.327
30
0.0
11
1414.785
21
778.978
31
0.0
0
LINE
5
1c42
8
0-0
6
CONTINUOUS
62
  7
10
1414.785
20
778.978
30
0.0
11
1414.780
21
778.412
31
0.0
0
LINE
5
1c43
8
0-0
6
CONTINUOUS
62
  7
10
1414.780
20
778.412
30
0.0
11
1414.823
21
777.948
31
0.0
0
LINE
5
1c44
8
0-0
6
CONTINUOUS
62
  7
10
1414.823
20
777.948
30
0.0
11
1414.925
21
777.592
31
0.0
0
LINE
5
1c45
8
0-0
6
CONTINUOUS
62
  7
10
1414.925
20
777.592
30
0.0
11
1414.988
21
777.477
31
0.0
0
LINE
5
1c46
8
0-0
6
CONTINUOUS
62
  7
10
1414.988
20
777.477
30
0.0
11
1415.039
21
777.412
31
0.0
0
LINE
5
1c47
8
0-0
6
CONTINUOUS
62
  7
10
1415.039
20
777.412
30
0.0
11
1415.256
21
777.207
31
0.0
0
LINE
5
1c48
8
0-0
6
CONTINUOUS
62
  7
10
1415.256
20
777.207
30
0.0
11
1415.553
21
776.984
31
0.0
0
LINE
5
1c49
8
0-0
6
CONTINUOUS
62
  7
10
1415.553
20
776.984
30
0.0
11
1415.920
21
776.727
31
0.0
0
LINE
5
1c4a
8
0-0
6
CONTINUOUS
62
  7
10
1415.920
20
776.727
30
0.0
11
1416.154
21
776.556
31
0.0
0
LINE
5
1c4b
8
0-0
6
CONTINUOUS
62
  7
10
1416.154
20
776.556
30
0.0
11
1416.324
21
776.422
31
0.0
0
LINE
5
1c4c
8
0-0
6
CONTINUOUS
62
  7
10
1416.324
20
776.422
30
0.0
11
1416.581
21
776.209
31
0.0
0
LINE
5
1c4d
8
0-0
6
CONTINUOUS
62
  7
10
1416.581
20
776.209
30
0.0
11
1416.809
21
776.022
31
0.0
0
LINE
5
1c4e
8
0-0
6
CONTINUOUS
62
  7
10
1416.809
20
776.022
30
0.0
11
1417.021
21
775.863
31
0.0
0
LINE
5
1c4f
8
0-0
6
CONTINUOUS
62
  7
10
1417.021
20
775.863
30
0.0
11
1417.118
21
775.798
31
0.0
0
LINE
5
1c50
8
0-0
6
CONTINUOUS
62
  7
10
1417.118
20
775.798
30
0.0
11
1417.297
21
775.698
31
0.0
0
LINE
5
1c51
8
0-0
6
CONTINUOUS
62
  7
10
1417.297
20
775.698
30
0.0
11
1417.678
21
775.533
31
0.0
0
LINE
5
1c52
8
0-0
6
CONTINUOUS
62
  7
10
1417.678
20
775.533
30
0.0
11
1418.095
21
775.398
31
0.0
0
LINE
5
1c53
8
0-0
6
CONTINUOUS
62
  7
10
1418.095
20
775.398
30
0.0
11
1418.546
21
775.280
31
0.0
0
LINE
5
1c54
8
0-0
6
CONTINUOUS
62
  7
10
1418.546
20
775.280
30
0.0
11
1418.807
21
775.218
31
0.0
0
LINE
5
1c55
8
0-0
6
CONTINUOUS
62
  7
10
1418.807
20
775.218
30
0.0
11
1419.036
21
775.166
31
0.0
0
LINE
5
1c56
8
0-0
6
CONTINUOUS
62
  7
10
1419.036
20
775.166
30
0.0
11
1419.424
21
775.081
31
0.0
0
LINE
5
1c57
8
0-0
6
CONTINUOUS
62
  7
10
1419.424
20
775.081
30
0.0
11
1419.827
21
775.003
31
0.0
0
LINE
5
1c58
8
0-0
6
CONTINUOUS
62
  7
10
1419.827
20
775.003
30
0.0
11
1420.280
21
774.928
31
0.0
0
LINE
5
1c59
8
0-0
6
CONTINUOUS
62
  7
10
1420.280
20
774.928
30
0.0
11
1420.579
21
774.886
31
0.0
0
LINE
5
1c5a
8
0-0
6
CONTINUOUS
62
  7
10
1420.579
20
774.886
30
0.0
11
1420.747
21
774.864
31
0.0
0
LINE
5
1c5b
8
0-0
6
CONTINUOUS
62
  7
10
1420.747
20
774.864
30
0.0
11
1421.074
21
774.816
31
0.0
0
LINE
5
1c5c
8
0-0
6
CONTINUOUS
62
  7
10
1421.074
20
774.816
30
0.0
11
1421.437
21
774.741
31
0.0
0
LINE
5
1c5d
8
0-0
6
CONTINUOUS
62
  7
10
1421.437
20
774.741
30
0.0
11
1421.886
21
774.566
31
0.0
0
LINE
5
1c5e
8
0-0
6
CONTINUOUS
62
  7
10
1421.886
20
774.566
30
0.0
11
1422.400
21
774.048
31
0.0
0
LINE
5
1c5f
8
0-0
6
CONTINUOUS
62
  7
10
1422.400
20
774.048
30
0.0
11
1422.343
21
773.138
31
0.0
0
LINE
5
1c60
8
0-0
6
CONTINUOUS
62
  7
10
1422.343
20
773.138
30
0.0
11
1421.820
21
772.629
31
0.0
0
LINE
5
1c61
8
0-0
6
CONTINUOUS
62
  7
10
1421.820
20
772.629
30
0.0
11
1421.390
21
772.372
31
0.0
0
LINE
5
1c62
8
0-0
6
CONTINUOUS
62
  7
10
1421.390
20
772.372
30
0.0
11
1420.978
21
772.166
31
0.0
0
LINE
5
1c63
8
0-0
6
CONTINUOUS
62
  7
10
1420.978
20
772.166
30
0.0
11
1420.851
21
772.106
31
0.0
0
LINE
5
1c64
8
0-0
6
CONTINUOUS
62
  7
10
1420.851
20
772.106
30
0.0
11
1420.399
21
771.892
31
0.0
0
LINE
5
1c65
8
0-0
6
CONTINUOUS
62
  7
10
1420.399
20
771.892
30
0.0
11
1419.889
21
771.640
31
0.0
0
LINE
5
1c66
8
0-0
6
CONTINUOUS
62
  7
10
1419.889
20
771.640
30
0.0
11
1419.500
21
771.420
31
0.0
0
LINE
5
1c67
8
0-0
6
CONTINUOUS
62
  7
10
1419.500
20
771.420
30
0.0
11
1419.177
21
771.193
31
0.0
0
LINE
5
1c68
8
0-0
6
CONTINUOUS
62
  7
10
1419.177
20
771.193
30
0.0
11
1419.017
21
771.057
31
0.0
0
LINE
5
1c69
8
0-0
6
CONTINUOUS
62
  7
10
1419.017
20
771.057
30
0.0
11
1418.878
21
770.923
31
0.0
0
LINE
5
1c6a
8
0-0
6
CONTINUOUS
62
  7
10
1418.878
20
770.923
30
0.0
11
1418.619
21
770.631
31
0.0
0
LINE
5
1c6b
8
0-0
6
CONTINUOUS
62
  7
10
1418.619
20
770.631
30
0.0
11
1418.388
21
770.314
31
0.0
0
LINE
5
1c6c
8
0-0
6
CONTINUOUS
62
  7
10
1418.388
20
770.314
30
0.0
11
1418.189
21
769.969
31
0.0
0
LINE
5
1c6d
8
0-0
6
CONTINUOUS
62
  7
10
1418.189
20
769.969
30
0.0
11
1418.107
21
769.790
31
0.0
0
LINE
5
1c6e
8
0-0
6
CONTINUOUS
62
  7
10
1418.107
20
769.790
30
0.0
11
1418.016
21
769.534
31
0.0
0
LINE
5
1c6f
8
0-0
6
CONTINUOUS
62
  7
10
1418.016
20
769.534
30
0.0
11
1417.907
21
769.032
31
0.0
0
LINE
5
1c70
8
0-0
6
CONTINUOUS
62
  7
10
1417.907
20
769.032
30
0.0
11
1417.870
21
768.512
31
0.0
0
LINE
5
1c71
8
0-0
6
CONTINUOUS
62
  7
10
1417.870
20
768.512
30
0.0
11
1417.897
21
767.952
31
0.0
0
LINE
5
1c72
8
0-0
6
CONTINUOUS
62
  7
10
1417.897
20
767.952
30
0.0
11
1417.937
21
767.633
31
0.0
0
LINE
5
1c73
8
0-0
6
CONTINUOUS
62
  7
10
1417.937
20
767.633
30
0.0
11
1417.980
21
767.373
31
0.0
0
LINE
5
1c74
8
0-0
6
CONTINUOUS
62
  7
10
1417.980
20
767.373
30
0.0
11
1418.085
21
766.919
31
0.0
0
LINE
5
1c75
8
0-0
6
CONTINUOUS
62
  7
10
1418.085
20
766.919
30
0.0
11
1418.221
21
766.498
31
0.0
0
LINE
5
1c76
8
0-0
6
CONTINUOUS
62
  7
10
1418.221
20
766.498
30
0.0
11
1418.395
21
766.102
31
0.0
0
LINE
5
1c77
8
0-0
6
CONTINUOUS
62
  7
10
1418.395
20
766.102
30
0.0
11
1418.503
21
765.907
31
0.0
0
LINE
5
1c78
8
0-0
6
CONTINUOUS
62
  7
10
1418.503
20
765.907
30
0.0
11
1418.646
21
765.689
31
0.0
0
LINE
5
1c79
8
0-0
6
CONTINUOUS
62
  7
10
1418.646
20
765.689
30
0.0
11
1418.961
21
765.290
31
0.0
0
LINE
5
1c7a
8
0-0
6
CONTINUOUS
62
  7
10
1418.961
20
765.290
30
0.0
11
1419.328
21
764.892
31
0.0
0
LINE
5
1c7b
8
0-0
6
CONTINUOUS
62
  7
10
1419.328
20
764.892
30
0.0
11
1419.729
21
764.489
31
0.0
0
LINE
5
1c7c
8
0-0
6
CONTINUOUS
62
  7
10
1419.729
20
764.489
30
0.0
11
1419.986
21
764.232
31
0.0
0
LINE
5
1c7d
8
0-0
6
CONTINUOUS
62
  7
10
1419.986
20
764.232
30
0.0
11
1420.283
21
763.927
31
0.0
0
LINE
5
1c7e
8
0-0
6
CONTINUOUS
62
  7
10
1420.283
20
763.927
30
0.0
11
1420.765
21
763.417
31
0.0
0
LINE
5
1c7f
8
0-0
6
CONTINUOUS
62
  7
10
1420.765
20
763.417
30
0.0
11
1421.246
21
762.899
31
0.0
0
LINE
5
1c80
8
0-0
6
CONTINUOUS
62
  7
10
1421.246
20
762.899
30
0.0
11
1421.705
21
762.409
31
0.0
0
LINE
5
1c81
8
0-0
6
CONTINUOUS
62
  7
10
1421.705
20
762.409
30
0.0
11
1421.977
21
762.124
31
0.0
0
LINE
5
1c82
8
0-0
6
CONTINUOUS
62
  7
10
1421.977
20
762.124
30
0.0
11
1422.167
21
761.930
31
0.0
0
LINE
5
1c83
8
0-0
6
CONTINUOUS
62
  7
10
1422.167
20
761.930
30
0.0
11
1422.503
21
761.598
31
0.0
0
LINE
5
1c84
8
0-0
6
CONTINUOUS
62
  7
10
1422.503
20
761.598
30
0.0
11
1422.842
21
761.281
31
0.0
0
LINE
5
1c85
8
0-0
6
CONTINUOUS
62
  7
10
1422.842
20
761.281
30
0.0
11
1423.192
21
760.978
31
0.0
0
LINE
5
1c86
8
0-0
6
CONTINUOUS
62
  7
10
1423.192
20
760.978
30
0.0
11
1423.391
21
760.817
31
0.0
0
LINE
5
1c87
8
0-0
6
CONTINUOUS
62
  7
10
1423.391
20
760.817
30
0.0
11
1423.628
21
760.636
31
0.0
0
LINE
5
1c88
8
0-0
6
CONTINUOUS
62
  7
10
1423.628
20
760.636
30
0.0
11
1424.071
21
760.314
31
0.0
0
LINE
5
1c89
8
0-0
6
CONTINUOUS
62
  7
10
1424.071
20
760.314
30
0.0
11
1424.533
21
759.982
31
0.0
0
LINE
5
1c8a
8
0-0
6
CONTINUOUS
62
  7
10
1424.533
20
759.982
30
0.0
11
1425.006
21
759.624
31
0.0
0
LINE
5
1c8b
8
0-0
6
CONTINUOUS
62
  7
10
1425.006
20
759.624
30
0.0
11
1425.286
21
759.393
31
0.0
0
LINE
5
1c8c
8
0-0
6
CONTINUOUS
62
  7
10
1425.286
20
759.393
30
0.0
11
1425.500
21
759.204
31
0.0
0
LINE
5
1c8d
8
0-0
6
CONTINUOUS
62
  7
10
1425.500
20
759.204
30
0.0
11
1425.841
21
758.879
31
0.0
0
LINE
5
1c8e
8
0-0
6
CONTINUOUS
62
  7
10
1425.841
20
758.879
30
0.0
11
1426.165
21
758.548
31
0.0
0
LINE
5
1c8f
8
0-0
6
CONTINUOUS
62
  7
10
1426.165
20
758.548
30
0.0
11
1426.472
21
758.223
31
0.0
0
LINE
5
1c90
8
0-0
6
CONTINUOUS
62
  7
10
1426.472
20
758.223
30
0.0
11
1426.642
21
758.041
31
0.0
0
LINE
5
1c91
8
0-0
6
CONTINUOUS
62
  7
10
1426.642
20
758.041
30
0.0
11
1426.883
21
757.784
31
0.0
0
LINE
5
1c92
8
0-0
6
CONTINUOUS
62
  7
10
1426.883
20
757.784
30
0.0
11
1427.292
21
757.338
31
0.0
0
LINE
5
1c93
8
0-0
6
CONTINUOUS
62
  7
10
1427.292
20
757.338
30
0.0
11
1427.703
21
756.853
31
0.0
0
LINE
5
1c94
8
0-0
6
CONTINUOUS
62
  7
10
1427.703
20
756.853
30
0.0
11
1428.087
21
756.330
31
0.0
0
LINE
5
1c95
8
0-0
6
CONTINUOUS
62
  7
10
1428.087
20
756.330
30
0.0
11
1428.303
21
755.981
31
0.0
0
LINE
5
1c96
8
0-0
6
CONTINUOUS
62
  7
10
1428.303
20
755.981
30
0.0
11
1428.553
21
755.497
31
0.0
0
LINE
5
1c97
8
0-0
6
CONTINUOUS
62
  7
10
1428.553
20
755.497
30
0.0
11
1428.872
21
754.656
31
0.0
0
LINE
5
1c98
8
0-0
6
CONTINUOUS
62
  7
10
1428.872
20
754.656
30
0.0
11
1429.086
21
753.780
31
0.0
0
LINE
5
1c99
8
0-0
6
CONTINUOUS
62
  7
10
1429.086
20
753.780
30
0.0
11
1429.209
21
752.909
31
0.0
0
LINE
5
1c9a
8
0-0
6
CONTINUOUS
62
  7
10
1429.209
20
752.909
30
0.0
11
1429.246
21
752.392
31
0.0
0
LINE
5
1c9b
8
0-0
6
CONTINUOUS
62
  7
10
1429.246
20
752.392
30
0.0
11
1429.262
21
751.845
31
0.0
0
LINE
5
1c9c
8
0-0
6
CONTINUOUS
62
  7
10
1429.262
20
751.845
30
0.0
11
1429.249
21
751.422
31
0.0
0
LINE
5
1c9d
8
0-0
6
CONTINUOUS
62
  7
10
1391.369
20
642.449
30
0.0
11
1439.308
21
637.410
31
0.0
0
LINE
5
1c9e
8
0-0
6
CONTINUOUS
62
  7
10
1437.845
20
623.487
30
0.0
11
1439.308
21
637.410
31
0.0
0
LINE
5
1c9f
8
0-0
6
CONTINUOUS
62
  7
10
1348.338
20
632.895
30
0.0
11
1437.845
21
623.487
31
0.0
0
LINE
5
1ca0
8
0-0
6
CONTINUOUS
62
  7
10
1393.251
20
660.350
30
0.0
11
1433.442
21
656.126
31
0.0
0
LINE
5
1ca1
8
0-0
6
CONTINUOUS
62
  7
10
1431.561
20
638.225
30
0.0
11
1433.442
21
656.126
31
0.0
0
LINE
5
1ca2
8
0-0
6
CONTINUOUS
62
  7
10
1391.261
20
660.560
30
0.0
11
1389.380
21
642.658
31
0.0
0
LINE
5
1ca3
8
0-0
6
CONTINUOUS
62
  7
10
858.919
20
941.108
30
0.0
11
1113.919
21
941.108
31
0.0
0
LINE
5
1ca4
8
0-0
6
CONTINUOUS
62
  7
10
1113.919
20
646.492
30
0.0
11
1113.919
21
941.108
31
0.0
0
LINE
5
1ca5
8
0-0
6
CONTINUOUS
62
  7
10
1043.919
20
641.108
30
0.0
11
1113.919
21
646.492
31
0.0
0
LINE
5
1ca6
8
ADD_LINE
6
HIDDEN
62
  3
10
1006.123
20
208.124
30
0.0
11
1006.123
21
206.099
31
0.0
0
LINE
5
1ca7
8
0-0
6
CONTINUOUS
62
  7
10
1113.919
20
245.922
30
0.0
11
1113.919
21
209.673
31
0.0
0
LINE
5
1ca8
8
0-0
6
CONTINUOUS
62
  7
10
1074.919
20
155.922
30
0.0
11
1093.919
21
155.922
31
0.0
0
LINE
5
1ca9
8
0-0
6
CONTINUOUS
62
  7
10
1074.919
20
193.637
30
0.0
11
1074.919
21
155.922
31
0.0
0
LINE
5
1caa
8
0-0
6
CONTINUOUS
62
  7
10
1093.919
20
200.609
30
0.0
11
1093.919
21
155.922
31
0.0
0
LINE
5
1cab
8
ADD_LINE
6
HIDDEN
62
  3
10
818.919
20
235.135
30
0.0
11
818.919
21
235.135
31
0.0
0
LINE
5
1cac
8
ADD_LINE
6
HIDDEN
62
  3
10
803.556
20
235.135
30
0.0
11
837.716
21
235.135
31
0.0
0
LINE
5
1cad
8
ADD_LINE
6
HIDDEN
62
  3
10
818.919
20
261.129
30
0.0
11
818.919
21
226.103
31
0.0
0
LINE
5
1cae
8
0-0
6
CONTINUOUS
62
  7
10
818.919
20
1172.989
30
0.0
11
1113.919
21
1172.989
31
0.0
0
LINE
5
1caf
8
0-0
6
CONTINUOUS
62
  7
10
818.919
20
1002.718
30
0.0
11
818.919
21
1172.989
31
0.0
0
LINE
5
1cb0
8
0-0
6
CONTINUOUS
62
  7
10
1113.919
20
1002.718
30
0.0
11
1113.919
21
1172.989
31
0.0
0
LINE
5
1cb1
8
0-0
6
CONTINUOUS
62
  7
10
556.892
20
1116.232
30
0.0
11
572.892
21
1116.232
31
0.0
0
LINE
5
1cb2
8
0-0
6
CONTINUOUS
62
  7
10
556.892
20
1002.718
30
0.0
11
556.892
21
1116.232
31
0.0
0
LINE
5
1cb3
8
0-0
6
CONTINUOUS
62
  7
10
572.892
20
1002.718
30
0.0
11
572.892
21
1116.232
31
0.0
0
LINE
5
1cb4
8
0-0
6
CONTINUOUS
62
  7
10
818.919
20
1116.232
30
0.0
11
858.919
21
1116.232
31
0.0
0
LINE
5
1cb5
8
0-0
6
CONTINUOUS
62
  7
10
818.919
20
1002.718
30
0.0
11
818.919
21
1116.232
31
0.0
0
LINE
5
1cb6
8
0-0
6
CONTINUOUS
62
  7
10
858.919
20
1002.718
30
0.0
11
858.919
21
1116.232
31
0.0
0
LINE
5
1cb7
8
0-0
6
CONTINUOUS
62
  7
10
858.919
20
1116.232
30
0.0
11
1113.919
21
1116.232
31
0.0
0
LINE
5
1cb8
8
0-0
6
CONTINUOUS
62
  7
10
1113.919
20
1002.718
30
0.0
11
1113.919
21
1116.232
31
0.0
0
LINE
5
1cb9
8
0-0
6
CONTINUOUS
62
  7
10
528.138
20
491.908
30
0.0
11
572.892
21
491.908
31
0.0
0
LINE
5
1cba
8
0-0
6
CONTINUOUS
62
  7
10
528.138
20
568.935
30
0.0
11
528.138
21
491.908
31
0.0
0
LINE
5
1cbb
8
0-0
6
CONTINUOUS
62
  7
10
572.892
20
568.935
30
0.0
11
572.892
21
491.908
31
0.0
0
LINE
5
1cbc
8
0-0
6
CONTINUOUS
62
  7
10
818.919
20
491.908
30
0.0
11
1113.919
21
491.908
31
0.0
0
LINE
5
1cbd
8
0-0
6
CONTINUOUS
62
  7
10
818.919
20
568.935
30
0.0
11
818.919
21
491.908
31
0.0
0
LINE
5
1cbe
8
0-0
6
CONTINUOUS
62
  7
10
1113.919
20
568.935
30
0.0
11
1113.919
21
491.908
31
0.0
0
LINE
5
1cbf
8
0-0
6
CONTINUOUS
62
  7
10
1356.561
20
491.908
30
0.0
11
1431.561
21
491.908
31
0.0
0
LINE
5
1cc0
8
0-0
6
CONTINUOUS
62
  7
10
1356.561
20
568.935
30
0.0
11
1356.561
21
491.908
31
0.0
0
LINE
5
1cc1
8
0-0
6
CONTINUOUS
62
  7
10
1431.561
20
568.935
30
0.0
11
1431.561
21
491.908
31
0.0
0
LINE
5
1cc2
8
0-0
6
CONTINUOUS
62
  7
10
682.568
20
941.108
30
0.0
11
682.568
21
641.108
31
0.0
0
LINE
5
1cc3
8
0-0
6
CONTINUOUS
62
  7
10
775.811
20
941.108
30
0.0
11
682.568
21
941.108
31
0.0
0
LINE
5
1cc4
8
0-0
6
CONTINUOUS
62
  7
10
775.811
20
641.108
30
0.0
11
682.568
21
641.108
31
0.0
0
LINE
5
1cc5
8
0-0
6
CONTINUOUS
62
  7
10
727.162
20
941.108
30
0.0
11
727.162
21
908.108
31
0.0
0
LINE
5
1cc6
8
0-0
6
CONTINUOUS
62
  7
10
775.811
20
941.108
30
0.0
11
727.162
21
941.108
31
0.0
0
LINE
5
1cc7
8
0-0
6
CONTINUOUS
62
  7
10
775.811
20
908.108
30
0.0
11
727.162
21
908.108
31
0.0
0
LINE
5
1cc8
8
0-0
6
CONTINUOUS
62
  7
10
727.162
20
908.108
30
0.0
11
727.162
21
641.108
31
0.0
0
LINE
5
1cc9
8
0-0
6
CONTINUOUS
62
  7
10
775.811
20
641.108
30
0.0
11
727.162
21
641.108
31
0.0
0
LINE
5
1cca
8
0-0
6
CONTINUOUS
62
  7
10
727.162
20
275.814
30
0.0
11
727.162
21
185.814
31
0.0
0
LINE
5
1ccb
8
0-0
6
CONTINUOUS
62
  7
10
775.811
20
275.814
30
0.0
11
727.162
21
275.814
31
0.0
0
LINE
5
1ccc
8
0-0
6
CONTINUOUS
62
  7
10
775.811
20
185.814
30
0.0
11
727.162
21
185.814
31
0.0
0
LINE
5
1ccd
8
0-0
6
CONTINUOUS
62
  7
10
818.919
20
395.189
30
0.0
11
1113.919
21
395.189
31
0.0
0
LINE
5
1cce
8
0-0
6
CONTINUOUS
62
  7
10
818.919
20
301.367
30
0.0
11
818.919
21
395.189
31
0.0
0
LINE
5
1ccf
8
0-0
6
CONTINUOUS
62
  7
10
1113.919
20
301.367
30
0.0
11
1113.919
21
395.189
31
0.0
0
LINE
5
1cd0
8
0-0
6
CONTINUOUS
62
  7
10
362.297
20
941.108
30
0.0
11
362.297
21
641.108
31
0.0
0
LINE
5
1cd1
8
0-0
6
CONTINUOUS
62
  7
10
475.811
20
941.108
30
0.0
11
362.297
21
941.108
31
0.0
0
LINE
5
1cd2
8
0-0
6
CONTINUOUS
62
  7
10
475.811
20
641.108
30
0.0
11
362.297
21
641.108
31
0.0
0
LINE
5
1cd3
8
0-0
6
CONTINUOUS
62
  7
10
1246.081
20
941.108
30
0.0
11
1246.081
21
646.492
31
0.0
0
LINE
5
1cd4
8
0-0
6
CONTINUOUS
62
  7
10
1177.162
20
941.108
30
0.0
11
1246.081
21
941.108
31
0.0
0
LINE
5
1cd5
8
0-0
6
CONTINUOUS
62
  7
10
1177.162
20
646.492
30
0.0
11
1246.081
21
646.492
31
0.0
0
LINE
5
1cd6
8
0-0
6
CONTINUOUS
62
  7
10
1246.081
20
245.922
30
0.0
11
1246.081
21
155.922
31
0.0
0
LINE
5
1cd7
8
0-0
6
CONTINUOUS
62
  7
10
1177.162
20
245.922
30
0.0
11
1246.081
21
245.922
31
0.0
0
LINE
5
1cd8
8
0-0
6
CONTINUOUS
62
  7
10
1177.162
20
155.922
30
0.0
11
1246.081
21
155.922
31
0.0
0
LINE
5
1cd9
8
0-0
6
CONTINUOUS
62
  7
10
1356.561
20
941.108
30
0.0
11
1421.561
21
941.108
31
0.0
0
LINE
5
1cda
8
0-0
6
CONTINUOUS
62
  7
10
1421.561
20
941.108
30
0.0
11
1446.561
21
711.108
31
0.0
0
LINE
5
1cdb
8
0-0
6
CONTINUOUS
62
  7
10
1356.561
20
1116.232
30
0.0
11
1421.561
21
1116.232
31
0.0
0
LINE
5
1cdc
8
0-0
6
CONTINUOUS
62
  7
10
1356.561
20
1002.718
30
0.0
11
1356.561
21
1116.232
31
0.0
0
LINE
5
1cdd
8
0-0
6
CONTINUOUS
62
  7
10
1421.561
20
1002.718
30
0.0
11
1421.561
21
1116.232
31
0.0
0
LINE
5
1cde
8
ADD_LINE
6
HIDDEN
62
  3
10
1006.123
20
208.124
30
0.0
11
984.509
21
208.124
31
0.0
0
LINE
5
1cdf
8
ADD_LINE
6
HIDDEN
62
  3
10
1006.123
20
208.124
30
0.0
11
1035.787
21
208.124
31
0.0
0
LINE
5
1ce0
8
ADD_LINE
6
HIDDEN
62
  3
10
1006.123
20
199.060
30
0.0
11
1006.123
21
244.824
31
0.0
0
CIRCLE
5
1ce1
8
0-0
6
CONTINUOUS
62
  7
10
923.919
20
921.108
30
0.0
40
3.000
0
CIRCLE
5
1ce2
8
0-0
6
CONTINUOUS
62
  7
10
858.919
20
230.814
30
0.0
40
45.000
0
CIRCLE
5
1ce3
8
0-0
6
CONTINUOUS
62
  7
10
1033.919
20
921.108
30
0.0
40
3.000
0
ARC
5
1ce4
8
0-0
6
CONTINUOUS
62
  7
10
858.919
20
678.166
30
0.0
40
68.059
50
228.609131
51
311.390839
0
CIRCLE
5
1ce5
8
0-0
6
CONTINUOUS
62
  7
10
858.919
20
728.107
30
0.0
40
3.000
0
CIRCLE
5
1ce6
8
0-0
6
CONTINUOUS
62
  7
10
858.919
20
753.107
30
0.0
40
3.000
0
ARC
5
1ce7
8
0-0
6
CONTINUOUS
62
  7
10
1452.516
20
651.478
30
0.0
40
59.926
50
95.703186
51
171.485947
0
ARC
5
1ce8
8
0-0
6
CONTINUOUS
62
  7
10
1463.405
20
881.329
30
0.0
40
68.824
50
540.751221
51
554.659668
0
ARC
5
1ce9
8
0-0
6
CONTINUOUS
62
  7
10
1461.199
20
889.290
30
0.0
40
67.199
50
547.578613
51
561.551208
0
ARC
5
1cea
8
0-0
6
CONTINUOUS
62
  7
10
1398.755
20
786.951
30
0.0
40
4.610
50
432.562622
51
501.386902
0
ARC
5
1ceb
8
0-0
6
CONTINUOUS
62
  7
10
1397.170
20
786.607
30
0.0
40
3.800
50
401.376404
51
482.051941
0
ARC
5
1cec
8
0-0
6
CONTINUOUS
62
  7
10
1409.305
20
750.755
30
0.0
40
17.973
50
338.563538
51
362.846466
0
ARC
5
1ced
8
0-0
6
CONTINUOUS
62
  7
10
1416.934
20
752.563
30
0.0
40
12.368
50
317.373962
51
354.708679
0
ARC
5
1cee
8
0-0
6
CONTINUOUS
62
  7
10
1221.559
20
686.986
30
0.0
40
137.836
50
336.894165
51
348.361450
0
ARC
5
1cef
8
0-0
6
CONTINUOUS
62
  7
10
1398.428
20
678.970
30
0.0
40
68.059
50
222.608978
51
305.390869
0
CIRCLE
5
1cf0
8
ADD_LINE
6
HIDDEN
62
  3
10
1006.121
20
208.124
30
0.0
40
3.000
0
ARC
5
1cf1
8
0-0
6
CONTINUOUS
62
  7
10
985.914
20
465.543
30
0.0
40
286.103
50
250.029709
51
296.577454
0
CIRCLE
5
1cf2
8
ADD_LINE
6
HIDDEN
62
  3
10
818.919
20
235.135
30
0.0
40
3.000
0
ARC
5
1cf3
8
0-0
6
CONTINUOUS
62
  7
10
1006.572
20
476.453
30
0.0
40
254.299
50
245.643036
51
294.969116
0
TEXT
5
1cf4
100
AcDbEntity
8
0-0
62
7
100
AcDbText
10
957.044
20
1175.489
30
0.0
40
9.750
41
0.800
50
0.000
1
295
100
AcDbText
0
TEXT
5
1cf5
100
AcDbEntity
8
0-0
62
7
100
AcDbText
10
558.642
20
1118.732
30
0.0
40
9.750
41
0.800
50
0.000
1
16
100
AcDbText
0
TEXT
5
1cf6
100
AcDbEntity
8
0-0
62
7
100
AcDbText
10
832.669
20
1118.732
30
0.0
40
9.750
41
0.800
50
0.000
1
40
100
AcDbText
0
TEXT
5
1cf7
100
AcDbEntity
8
0-0
62
7
100
AcDbText
10
977.044
20
1118.732
30
0.0
40
9.750
41
0.800
50
0.000
1
255
100
AcDbText
0
TEXT
5
1cf8
100
AcDbEntity
8
0-0
62
7
100
AcDbText
10
544.265
20
494.408
30
0.0
40
9.750
41
0.800
50
0.000
1
45
100
AcDbText
0
TEXT
5
1cf9
100
AcDbEntity
8
0-0
62
7
100
AcDbText
10
957.044
20
494.408
30
0.0
40
9.750
41
0.800
50
0.000
1
295
100
AcDbText
0
TEXT
5
1cfa
100
AcDbEntity
8
0-0
62
7
100
AcDbText
10
1387.811
20
494.408
30
0.0
40
9.750
41
0.800
50
0.000
1
75
100
AcDbText
0
TEXT
5
1cfb
100
AcDbEntity
8
0-0
62
7
100
AcDbText
10
680.068
20
781.733
30
0.0
40
9.750
41
0.800
50
90.000
1
300
100
AcDbText
0
TEXT
5
1cfc
100
AcDbEntity
8
0-0
62
7
100
AcDbText
10
724.662
20
918.358
30
0.0
40
9.750
41
0.800
50
90.000
1
33
100
AcDbText
0
TEXT
5
1cfd
100
AcDbEntity
8
0-0
62
7
100
AcDbText
10
724.662
20
765.233
30
0.0
40
9.750
41
0.800
50
90.000
1
267
100
AcDbText
0
TEXT
5
1cfe
100
AcDbEntity
8
0-0
62
7
100
AcDbText
10
724.662
20
224.564
30
0.0
40
9.750
41
0.800
50
90.000
1
90
100
AcDbText
0
TEXT
5
1cff
100
AcDbEntity
8
0-0
62
7
100
AcDbText
10
957.044
20
397.689
30
0.0
40
9.750
41
0.800
50
0.000
1
295
100
AcDbText
0
TEXT
5
1d00
100
AcDbEntity
8
0-0
62
7
100
AcDbText
10
359.797
20
781.733
30
0.0
40
9.750
41
0.800
50
90.000
1
300
100
AcDbText
0
TEXT
5
1d01
100
AcDbEntity
8
0-0
62
7
100
AcDbText
10
1243.581
20
784.425
30
0.0
40
9.750
41
0.800
50
90.000
1
295
100
AcDbText
0
TEXT
5
1d02
100
AcDbEntity
8
0-0
62
7
100
AcDbText
10
1243.581
20
194.672
30
0.0
40
9.750
41
0.800
50
90.000
1
90
100
AcDbText
0
TEXT
5
1d03
100
AcDbEntity
8
0-0
62
7
100
AcDbText
10
1382.811
20
1118.732
30
0.0
40
9.750
41
0.800
50
0.000
1
65
100
AcDbText
0
POINT
5
1d04
8
0-0
62
  7
10
818.919
20
1172.989
30
0.0
0
POINT
5
1d05
8
0-0
62
  7
10
1113.919
20
1172.989
30
0.0
0
POINT
5
1d06
8
0-0
62
  7
10
556.892
20
1116.232
30
0.0
0
POINT
5
1d07
8
0-0
62
  7
10
572.892
20
1116.232
30
0.0
0
POINT
5
1d08
8
0-0
62
  7
10
818.919
20
1116.232
30
0.0
0
POINT
5
1d09
8
0-0
62
  7
10
858.919
20
1116.232
30
0.0
0
POINT
5
1d0a
8
0-0
62
  7
10
1113.919
20
1116.232
30
0.0
0
POINT
5
1d0b
8
0-0
62
  7
10
528.138
20
491.908
30
0.0
0
POINT
5
1d0c
8
0-0
62
  7
10
572.892
20
491.908
30
0.0
0
POINT
5
1d0d
8
0-0
62
  7
10
818.919
20
491.908
30
0.0
0
POINT
5
1d0e
8
0-0
62
  7
10
1113.919
20
491.908
30
0.0
0
POINT
5
1d0f
8
0-0
62
  7
10
1356.561
20
491.908
30
0.0
0
POINT
5
1d10
8
0-0
62
  7
10
1431.561
20
491.908
30
0.0
0
POINT
5
1d11
8
0-0
62
  7
10
682.568
20
941.108
30
0.0
0
POINT
5
1d12
8
0-0
62
  7
10
682.568
20
641.108
30
0.0
0
POINT
5
1d13
8
0-0
62
  7
10
727.162
20
941.108
30
0.0
0
POINT
5
1d14
8
0-0
62
  7
10
727.162
20
908.108
30
0.0
0
POINT
5
1d15
8
0-0
62
  7
10
727.162
20
641.108
30
0.0
0
POINT
5
1d16
8
0-0
62
  7
10
727.162
20
275.814
30
0.0
0
POINT
5
1d17
8
0-0
62
  7
10
727.162
20
185.814
30
0.0
0
POINT
5
1d18
8
0-0
62
  7
10
818.919
20
395.189
30
0.0
0
POINT
5
1d19
8
0-0
62
  7
10
1113.919
20
395.189
30
0.0
0
POINT
5
1d1a
8
0-0
62
  7
10
362.297
20
941.108
30
0.0
0
POINT
5
1d1b
8
0-0
62
  7
10
362.297
20
641.108
30
0.0
0
POINT
5
1d1c
8
0-0
62
  7
10
1246.081
20
941.108
30
0.0
0
POINT
5
1d1d
8
0-0
62
  7
10
1246.081
20
646.492
30
0.0
0
POINT
5
1d1e
8
0-0
62
  7
10
1246.081
20
245.922
30
0.0
0
POINT
5
1d1f
8
0-0
62
  7
10
1246.081
20
155.922
30
0.0
0
POINT
5
1d20
8
0-0
62
  7
10
1356.561
20
1116.232
30
0.0
0
POINT
5
1d21
8
0-0
62
  7
10
1421.561
20
1116.232
30
0.0
0
ENDSEC
0
EOF
