0
SECTION
2
HEADER
  9
$EXTMIN
10
0
20
0
30
0
  9
$EXTMAX
10
1908.244
20
1198.436
30
0
  9
$LTSCALE
40
5.000
  9
$DIMSCALE
40
5.000
  9
$PDMODE
70
0
  9
$PDSIZE
40
40
0
ENDSEC
0
SECTION
2
TABLES
0
TABLE
2
LTYPE
70
9
0
LTYPE
5
1f4
2
CONTINUOUS
70
0
3
実線
72
65
73
0
40
0.0
0
LTYPE
5
1f5
2
DOT
70
0
3
--  --  --  --  --  --  --  --     
72
65
73
2
40
5.000
49
1.000
49
-4.000
0
LTYPE
5
1f6
2
DASHED
70
0
3
----    ----    ----    ----    
72
65
73
2
40
5.000
49
2.000
49
-3.000
0
LTYPE
5
1f7
2
DASHED2
70
0
3
------  ------  ------  ------ 
72
65
73
2
40
10.000
49
4.000
49
-6.000
0
LTYPE
5
1f8
2
CENTER
70
0
3
----- - ----- - ----- - ----- - 
72
65
73
4
40
9.000
49
6.000
49
-1.000
49
1.000
49
-1.000
0
LTYPE
5
1f9
2
CENTER2
70
0
3
----------  --  ----------  -- 
72
65
73
4
40
18.000
49
12.000
49
-2.000
49
2.000
49
-2.000
0
LTYPE
5
1fa
2
PHANTOM
70
0
3
--- - - --- - - --- - - --- - -
72
65
73
6
40
10.000
49
5.000
49
-1.000
49
1.000
49
-1.000
49
1.000
49
-1.000
0
LTYPE
5
1fb
2
PHANTOM2
70
0
3
--------  -  -  --------  -  -
72
65
73
6
40
16.000
49
6.000
49
-2.000
49
2.000
49
-2.000
49
2.000
49
-2.000
0
LTYPE
5
1fc
2
HIDDEN
70
0
3
-   -   -   -   -   -   -   -   
72
65
73
2
40
2.500
49
0.500
49
-2.000
0
ENDTAB
0
TABLE
2
STYLE
70
1
0
STYLE
5
1fd
100
AcDbSymbolTableRecord
100
AcDbTextStyleTableRecord
2
STANDARD
70
0
40
0.0
41
1.0
50
0.0
71
0
42
0.0
3
txt.shx
4
extfont.shx
0
STYLE
5
1fe
100
AcDbSymbolTableRecord
100
AcDbTextStyleTableRecord
2
TATEGAKI
70
4
40
0.0
41
1.0
50
0.0
71
0
42
0.0
3
txt.shx
4
extfont.shx
0
STYLE
5
1ff
100
AcDbSymbolTableRecord
100
AcDbTextStyleTableRecord
2
MT
70
0
40
0.0
41
1.0
50
0.0
71
0
42
0.0
3
MS Mincho
4

0
STYLE
5
200
100
AcDbSymbolTableRecord
100
AcDbTextStyleTableRecord
2
TMT
70
4
40
0.0
41
1.0
50
0.0
71
0
42
0.0
3
@MS Mincho
4

0
ENDTAB
0
TABLE
2
LAYER
5
255d
100
AcDbSymbolTable
70
10
0
LAYER
5
255e
100
AcDbSymbolTableRecord
100
AcDbLayerTableRecord
2
0
70
64
62
  7
  6
CONTINUOUS
0
LAYER
5
255f
100
AcDbSymbolTableRecord
100
AcDbLayerTableRecord
2
0-0
70
64
62
  7
  6
CONTINUOUS
0
LAYER
5
2560
100
AcDbSymbolTableRecord
100
AcDbLayerTableRecord
2
ADD_LINE
70
64
62
  -7
  6
CONTINUOUS
0
ENDTAB
0
ENDSEC
0
SECTION
2
ENTITIES
0
LINE
5
2561
8
0-0
6
CONTINUOUS
62
  7
10
662.838
20
699.233
30
0.0
11
772.838
21
694.233
31
0.0
0
LINE
5
2562
8
0-0
6
CONTINUOUS
62
  7
10
662.838
20
988.233
30
0.0
11
662.838
21
699.233
31
0.0
0
LINE
5
2563
8
0-0
6
CONTINUOUS
62
  7
10
662.838
20
988.233
30
0.0
11
690.838
21
988.233
31
0.0
0
LINE
5
2564
8
0-0
6
CONTINUOUS
62
  7
10
690.838
20
993.233
30
0.0
11
690.838
21
988.233
31
0.0
0
LINE
5
2565
8
0-0
6
CONTINUOUS
62
  7
10
710.838
20
985.233
30
0.0
11
890.838
21
985.233
31
0.0
0
LINE
5
2566
8
0-0
6
CONTINUOUS
62
  7
10
710.838
20
985.233
30
0.0
11
710.838
21
993.233
31
0.0
0
LINE
5
2567
8
0-0
6
CONTINUOUS
62
  7
10
890.838
20
985.233
30
0.0
11
890.838
21
993.233
31
0.0
0
LINE
5
2568
8
ADD_LINE
6
HIDDEN
62
  3
10
662.838
20
346.351
30
0.0
11
662.838
21
389.887
31
0.0
0
LINE
5
2569
8
0-0
6
CONTINUOUS
62
  7
10
1353.054
20
311.351
30
0.0
11
1353.054
21
308.351
31
0.0
0
LINE
5
256a
8
0-0
6
CONTINUOUS
62
  7
10
1668.055
20
321.351
30
0.0
11
1668.055
21
251.351
31
0.0
0
LINE
5
256b
8
0-0
6
CONTINUOUS
62
  7
10
1618.054
20
308.351
30
0.0
11
1668.055
21
321.351
31
0.0
0
LINE
5
256c
8
0-0
6
CONTINUOUS
62
  7
10
1618.054
20
308.351
30
0.0
11
1596.000
21
302.617
31
0.0
0
LINE
5
256d
8
0-0
6
CONTINUOUS
62
  7
10
1353.054
20
308.351
30
0.0
11
1391.054
21
318.231
31
0.0
0
LINE
5
256e
8
0-0
6
CONTINUOUS
62
  7
10
1391.054
20
318.231
30
0.0
11
1391.054
21
316.351
31
0.0
0
LINE
5
256f
8
0-0
6
CONTINUOUS
62
  7
10
1353.054
20
308.351
30
0.0
11
1391.054
21
318.231
31
0.0
0
LINE
5
2570
8
0-0
6
CONTINUOUS
62
  7
10
1353.054
20
308.351
30
0.0
11
1353.054
21
333.351
31
0.0
0
LINE
5
2571
8
0-0
6
CONTINUOUS
62
  7
10
1391.054
20
251.351
30
0.0
11
1391.054
21
316.351
31
0.0
0
LINE
5
2572
8
0-0
6
CONTINUOUS
62
  7
10
1391.054
20
251.351
30
0.0
11
1668.055
21
251.351
31
0.0
0
LINE
5
2573
8
0-0
6
CONTINUOUS
62
  7
10
1618.054
20
308.351
30
0.0
11
1656.054
21
318.231
31
0.0
0
LINE
5
2574
8
0-0
6
CONTINUOUS
62
  7
10
1656.054
20
318.231
30
0.0
11
1656.054
21
316.351
31
0.0
0
LINE
5
2575
8
0-0
6
CONTINUOUS
62
  7
10
1618.054
20
308.351
30
0.0
11
1656.054
21
318.231
31
0.0
0
LINE
5
2576
8
0-0
6
CONTINUOUS
62
  7
10
1656.054
20
251.351
30
0.0
11
1656.054
21
316.351
31
0.0
0
LINE
5
2577
8
ADD_LINE
6
HIDDEN
62
  4
10
1667.266
20
251.351
30
0.0
11
1668.055
21
252.140
31
0.0
0
LINE
5
2578
8
ADD_LINE
6
HIDDEN
62
  4
10
1661.609
20
251.351
30
0.0
11
1668.055
21
257.797
31
0.0
0
LINE
5
2579
8
ADD_LINE
6
HIDDEN
62
  4
10
1656.054
20
251.453
30
0.0
11
1668.055
21
263.453
31
0.0
0
LINE
5
257a
8
ADD_LINE
6
HIDDEN
62
  4
10
1656.054
20
257.110
30
0.0
11
1668.055
21
269.110
31
0.0
0
LINE
5
257b
8
ADD_LINE
6
HIDDEN
62
  4
10
1656.054
20
262.767
30
0.0
11
1668.055
21
274.767
31
0.0
0
LINE
5
257c
8
ADD_LINE
6
HIDDEN
62
  4
10
1656.054
20
268.424
30
0.0
11
1668.055
21
280.424
31
0.0
0
LINE
5
257d
8
ADD_LINE
6
HIDDEN
62
  4
10
1656.054
20
274.080
30
0.0
11
1668.055
21
286.081
31
0.0
0
LINE
5
257e
8
ADD_LINE
6
HIDDEN
62
  4
10
1656.054
20
279.737
30
0.0
11
1668.055
21
291.738
31
0.0
0
LINE
5
257f
8
ADD_LINE
6
HIDDEN
62
  4
10
1656.054
20
285.394
30
0.0
11
1668.055
21
297.394
31
0.0
0
LINE
5
2580
8
ADD_LINE
6
HIDDEN
62
  4
10
1656.054
20
291.051
30
0.0
11
1668.055
21
303.051
31
0.0
0
LINE
5
2581
8
ADD_LINE
6
HIDDEN
62
  4
10
1656.054
20
296.708
30
0.0
11
1668.055
21
308.708
31
0.0
0
LINE
5
2582
8
ADD_LINE
6
HIDDEN
62
  4
10
1656.054
20
302.365
30
0.0
11
1668.055
21
314.365
31
0.0
0
LINE
5
2583
8
ADD_LINE
6
HIDDEN
62
  4
10
1656.054
20
308.021
30
0.0
11
1668.055
21
320.022
31
0.0
0
LINE
5
2584
8
ADD_LINE
6
HIDDEN
62
  4
10
1656.054
20
313.678
30
0.0
11
1662.207
21
319.831
31
0.0
0
LINE
5
2585
8
0-0
6
CONTINUOUS
62
  7
10
1665.250
20
280.318
30
0.0
11
1685.340
21
355.292
31
0.0
0
LINE
5
2586
8
0-0
6
CONTINUOUS
62
  7
10
1685.340
20
355.292
30
0.0
11
1699.577
21
355.292
31
0.0
0
LINE
5
2587
8
ADD_LINE
6
HIDDEN
62
  3
10
662.838
20
346.351
30
0.0
11
662.838
21
389.887
31
0.0
0
LINE
5
2588
8
0-0
6
CONTINUOUS
62
  7
10
886.838
20
308.351
30
0.0
11
924.838
21
318.231
31
0.0
0
LINE
5
2589
8
0-0
6
CONTINUOUS
62
  7
10
656.195
20
251.351
30
0.0
11
924.838
21
251.351
31
0.0
0
LINE
5
258a
8
0-0
6
CONTINUOUS
62
  7
10
656.195
20
251.351
30
0.0
11
735.622
21
251.351
31
0.0
0
LINE
5
258b
8
0-0
6
CONTINUOUS
62
  7
10
468.378
20
988.233
30
0.0
11
468.378
21
699.233
31
0.0
0
LINE
5
258c
8
0-0
6
CONTINUOUS
62
  7
10
468.378
20
699.233
30
0.0
11
378.141
21
676.734
31
0.0
0
LINE
5
258d
8
0-0
6
CONTINUOUS
62
  7
10
403.378
20
988.233
30
0.0
11
378.141
21
676.734
31
0.0
0
LINE
5
258e
8
0-0
6
CONTINUOUS
62
  7
10
468.378
20
988.233
30
0.0
11
403.378
21
988.233
31
0.0
0
LINE
5
258f
8
0-0
6
CONTINUOUS
62
  7
10
384.420
20
754.233
30
0.0
11
448.378
21
754.233
31
0.0
0
LINE
5
2590
8
0-0
6
CONTINUOUS
62
  7
10
448.378
20
694.247
30
0.0
11
448.378
21
754.233
31
0.0
0
LINE
5
2591
8
0-0
6
CONTINUOUS
62
  7
10
384.420
20
753.233
30
0.0
11
447.378
21
753.233
31
0.0
0
LINE
5
2592
8
0-0
6
CONTINUOUS
62
  7
10
447.378
20
694.247
30
0.0
11
447.378
21
753.233
31
0.0
0
LINE
5
2593
8
0-0
6
CONTINUOUS
62
  7
10
1197.757
20
710.651
30
0.0
11
1224.757
21
707.813
31
0.0
0
LINE
5
2594
8
0-0
6
CONTINUOUS
62
  7
10
1224.757
20
707.813
30
0.0
11
1233.757
21
688.768
31
0.0
0
LINE
5
2595
8
0-0
6
CONTINUOUS
62
  7
10
1181.757
20
694.233
30
0.0
11
1233.757
21
688.768
31
0.0
0
LINE
5
2596
8
0-0
6
CONTINUOUS
62
  7
10
1181.757
20
985.233
30
0.0
11
1178.757
21
985.233
31
0.0
0
LINE
5
2597
8
0-0
6
CONTINUOUS
62
  7
10
1197.757
20
993.233
30
0.0
11
1197.757
21
710.651
31
0.0
0
LINE
5
2598
8
0-0
6
CONTINUOUS
62
  7
10
1178.757
20
993.233
30
0.0
11
1178.757
21
985.233
31
0.0
0
LINE
5
2599
8
0-0
6
CONTINUOUS
62
  7
10
1178.757
20
993.233
30
0.0
11
1197.757
21
993.233
31
0.0
0
LINE
5
259a
8
0-0
6
CONTINUOUS
62
  7
10
1181.757
20
985.233
30
0.0
11
1181.757
21
694.233
31
0.0
0
LINE
5
259b
8
0-0
6
CONTINUOUS
62
  7
10
1181.757
20
694.233
30
0.0
11
1140.757
21
698.542
31
0.0
0
LINE
5
259c
8
0-0
6
CONTINUOUS
62
  7
10
1178.757
20
985.233
30
0.0
11
1148.843
21
985.233
31
0.0
0
LINE
5
259d
8
0-0
6
CONTINUOUS
62
  7
10
1140.757
20
988.233
30
0.0
11
1140.757
21
698.542
31
0.0
0
LINE
5
259e
8
0-0
6
CONTINUOUS
62
  7
10
1140.757
20
988.233
30
0.0
11
1142.993
21
988.233
31
0.0
0
LINE
5
259f
8
0-0
6
CONTINUOUS
62
  7
10
1142.993
20
993.233
30
0.0
11
1142.993
21
988.233
31
0.0
0
LINE
5
25a0
8
0-0
6
CONTINUOUS
62
  7
10
1178.757
20
993.233
30
0.0
11
1142.993
21
993.233
31
0.0
0
LINE
5
25a1
8
0-0
6
CONTINUOUS
62
  7
10
1148.843
20
985.233
30
0.0
11
1148.843
21
993.233
31
0.0
0
LINE
5
25a2
8
0-0
6
CONTINUOUS
62
  7
10
1121.411
20
251.351
30
0.0
11
1391.054
21
251.351
31
0.0
0
LINE
5
25a3
8
0-0
6
CONTINUOUS
62
  7
10
403.378
20
1195.936
30
0.0
11
468.378
21
1195.936
31
0.0
0
LINE
5
25a4
8
0-0
6
CONTINUOUS
62
  7
10
403.378
20
1045.936
30
0.0
11
403.378
21
1195.936
31
0.0
0
LINE
5
25a5
8
0-0
6
CONTINUOUS
62
  7
10
468.378
20
1045.936
30
0.0
11
468.378
21
1195.936
31
0.0
0
LINE
5
25a6
8
0-0
6
CONTINUOUS
62
  7
10
662.838
20
1195.936
30
0.0
11
924.838
21
1195.936
31
0.0
0
LINE
5
25a7
8
0-0
6
CONTINUOUS
62
  7
10
662.838
20
1045.936
30
0.0
11
662.838
21
1195.936
31
0.0
0
LINE
5
25a8
8
0-0
6
CONTINUOUS
62
  7
10
924.838
20
1045.936
30
0.0
11
924.838
21
1195.936
31
0.0
0
LINE
5
25a9
8
0-0
6
CONTINUOUS
62
  7
10
1181.757
20
1195.936
30
0.0
11
1197.757
21
1195.936
31
0.0
0
LINE
5
25aa
8
0-0
6
CONTINUOUS
62
  7
10
1181.757
20
1045.936
30
0.0
11
1181.757
21
1195.936
31
0.0
0
LINE
5
25ab
8
0-0
6
CONTINUOUS
62
  7
10
1197.757
20
1045.936
30
0.0
11
1197.757
21
1195.936
31
0.0
0
LINE
5
25ac
8
0-0
6
CONTINUOUS
62
  7
10
378.141
20
563.503
30
0.0
11
468.378
21
563.503
31
0.0
0
LINE
5
25ad
8
0-0
6
CONTINUOUS
62
  7
10
378.141
20
652.692
30
0.0
11
378.141
21
563.503
31
0.0
0
LINE
5
25ae
8
0-0
6
CONTINUOUS
62
  7
10
468.378
20
652.692
30
0.0
11
468.378
21
563.503
31
0.0
0
LINE
5
25af
8
0-0
6
CONTINUOUS
62
  7
10
1181.757
20
563.503
30
0.0
11
1233.757
21
563.503
31
0.0
0
LINE
5
25b0
8
0-0
6
CONTINUOUS
62
  7
10
1181.757
20
652.692
30
0.0
11
1181.757
21
563.503
31
0.0
0
LINE
5
25b1
8
0-0
6
CONTINUOUS
62
  7
10
1233.757
20
652.692
30
0.0
11
1233.757
21
563.503
31
0.0
0
LINE
5
25b2
8
0-0
6
CONTINUOUS
62
  7
10
1121.411
20
251.351
30
0.0
11
1201.838
21
251.351
31
0.0
0
LINE
5
25b3
8
0-0
6
CONTINUOUS
62
  7
10
1128.093
20
346.906
30
0.0
11
1121.411
21
251.351
31
0.0
0
LINE
5
25b4
8
ADD_LINE
6
HIDDEN
62
  3
10
1128.093
20
346.906
30
0.0
11
1128.093
21
355.113
31
0.0
0
LINE
5
25b5
8
ADD_LINE
6
HIDDEN
62
  3
10
1353.093
20
363.341
30
0.0
11
1353.093
21
243.633
31
0.0
0
LINE
5
25b6
8
0-0
6
CONTINUOUS
62
  7
10
690.838
20
993.233
30
0.0
11
925.838
21
993.233
31
0.0
0
LINE
5
25b7
8
0-0
6
CONTINUOUS
62
  7
10
925.838
20
993.233
30
0.0
11
925.838
21
724.233
31
0.0
0
LINE
5
25b8
8
0-0
6
CONTINUOUS
62
  7
10
772.838
20
694.233
30
0.0
11
935.838
21
694.233
31
0.0
0
LINE
5
25b9
8
0-0
6
CONTINUOUS
62
  7
10
886.838
20
308.351
30
0.0
11
924.838
21
318.231
31
0.0
0
LINE
5
25ba
8
0-0
6
CONTINUOUS
62
  7
10
656.195
20
251.351
30
0.0
11
935.838
21
251.351
31
0.0
0
LINE
5
25bb
8
0-0
6
DOT
62
  4
10
932.745
20
251.351
30
0.0
11
935.838
21
254.444
31
0.0
0
LINE
5
25bc
8
0-0
6
DOT
62
  4
10
927.089
20
251.351
30
0.0
11
935.838
21
260.101
31
0.0
0
LINE
5
25bd
8
0-0
6
CONTINUOUS
62
  7
10
935.838
20
321.710
30
0.0
11
935.838
21
251.351
31
0.0
0
LINE
5
25be
8
0-0
6
CONTINUOUS
62
  7
10
662.838
20
563.503
30
0.0
11
935.838
21
563.503
31
0.0
0
LINE
5
25bf
8
0-0
6
CONTINUOUS
62
  7
10
662.838
20
652.692
30
0.0
11
662.838
21
563.503
31
0.0
0
LINE
5
25c0
8
0-0
6
CONTINUOUS
62
  7
10
935.838
20
652.692
30
0.0
11
935.838
21
563.503
31
0.0
0
LINE
5
25c1
8
0-0
6
CONTINUOUS
62
  7
10
662.838
20
599.990
30
0.0
11
925.838
21
599.990
31
0.0
0
LINE
5
25c2
8
0-0
6
CONTINUOUS
62
  7
10
662.838
20
652.692
30
0.0
11
662.838
21
599.990
31
0.0
0
LINE
5
25c3
8
0-0
6
CONTINUOUS
62
  7
10
925.838
20
652.692
30
0.0
11
925.838
21
599.990
31
0.0
0
LINE
5
25c4
8
0-0
6
CONTINUOUS
62
  7
10
925.838
20
599.990
30
0.0
11
935.838
21
599.990
31
0.0
0
LINE
5
25c5
8
0-0
6
CONTINUOUS
62
  7
10
935.838
20
652.692
30
0.0
11
935.838
21
599.990
31
0.0
0
LINE
5
25c6
8
0-0
6
CONTINUOUS
62
  7
10
656.195
20
251.351
30
0.0
11
662.838
21
346.351
31
0.0
0
LINE
5
25c7
8
ADD_LINE
6
HIDDEN
62
  3
10
887.838
20
394.893
30
0.0
11
887.838
21
212.072
31
0.0
0
LINE
5
25c8
8
0-0
6
CONTINUOUS
62
  7
10
662.838
20
466.206
30
0.0
11
935.838
21
466.206
31
0.0
0
LINE
5
25c9
8
0-0
6
CONTINUOUS
62
  7
10
662.838
20
372.963
30
0.0
11
662.838
21
466.206
31
0.0
0
LINE
5
25ca
8
0-0
6
CONTINUOUS
62
  7
10
935.838
20
372.963
30
0.0
11
935.838
21
466.206
31
0.0
0
LINE
5
25cb
8
0-0
6
CONTINUOUS
62
  7
10
662.838
20
434.408
30
0.0
11
887.838
21
434.408
31
0.0
0
LINE
5
25cc
8
0-0
6
CONTINUOUS
62
  7
10
662.838
20
372.963
30
0.0
11
662.838
21
434.408
31
0.0
0
LINE
5
25cd
8
0-0
6
CONTINUOUS
62
  7
10
887.838
20
372.963
30
0.0
11
887.838
21
434.408
31
0.0
0
LINE
5
25ce
8
0-0
6
CONTINUOUS
62
  7
10
887.838
20
434.408
30
0.0
11
935.838
21
434.408
31
0.0
0
LINE
5
25cf
8
0-0
6
CONTINUOUS
62
  7
10
935.838
20
372.963
30
0.0
11
935.838
21
434.408
31
0.0
0
LINE
5
25d0
8
0-0
6
CONTINUOUS
62
  7
10
1128.093
20
434.408
30
0.0
11
1353.093
21
434.408
31
0.0
0
LINE
5
25d1
8
0-0
6
CONTINUOUS
62
  7
10
1128.093
20
372.963
30
0.0
11
1128.093
21
434.408
31
0.0
0
LINE
5
25d2
8
0-0
6
CONTINUOUS
62
  7
10
1353.093
20
372.963
30
0.0
11
1353.093
21
434.408
31
0.0
0
LINE
5
25d3
8
ADD_LINE
6
HIDDEN
62
  3
10
1618.093
20
437.925
30
0.0
11
1618.093
21
210.765
31
0.0
0
LINE
5
25d4
8
0-0
6
CONTINUOUS
62
  7
10
1353.093
20
434.408
30
0.0
11
1618.093
21
434.408
31
0.0
0
LINE
5
25d5
8
0-0
6
CONTINUOUS
62
  7
10
1353.093
20
372.963
30
0.0
11
1353.093
21
434.408
31
0.0
0
LINE
5
25d6
8
0-0
6
CONTINUOUS
62
  7
10
1618.093
20
372.963
30
0.0
11
1618.093
21
434.408
31
0.0
0
LINE
5
25d7
8
0-0
6
CONTINUOUS
62
  7
10
925.838
20
318.506
30
0.0
11
925.838
21
251.351
31
0.0
0
LINE
5
25d8
8
0-0
6
DOT
62
  4
10
925.838
20
295.355
30
0.0
11
935.838
21
305.355
31
0.0
0
LINE
5
25d9
8
0-0
6
DOT
62
  4
10
925.838
20
301.012
30
0.0
11
935.838
21
311.012
31
0.0
0
LINE
5
25da
8
0-0
6
DOT
62
  4
10
925.838
20
306.669
30
0.0
11
935.838
21
316.669
31
0.0
0
LINE
5
25db
8
0-0
6
DOT
62
  4
10
925.838
20
312.326
30
0.0
11
934.838
21
321.326
31
0.0
0
LINE
5
25dc
8
0-0
6
DOT
62
  4
10
925.838
20
284.042
30
0.0
11
935.838
21
294.042
31
0.0
0
LINE
5
25dd
8
0-0
6
DOT
62
  4
10
925.838
20
289.699
30
0.0
11
935.838
21
299.699
31
0.0
0
LINE
5
25de
8
0-0
6
DOT
62
  4
10
925.838
20
272.728
30
0.0
11
935.838
21
282.728
31
0.0
0
LINE
5
25df
8
0-0
6
DOT
62
  4
10
925.838
20
278.385
30
0.0
11
935.838
21
288.385
31
0.0
0
LINE
5
25e0
8
0-0
6
DOT
62
  4
10
925.838
20
261.414
30
0.0
11
935.838
21
271.414
31
0.0
0
LINE
5
25e1
8
0-0
6
DOT
62
  4
10
925.838
20
267.071
30
0.0
11
935.838
21
277.071
31
0.0
0
LINE
5
25e2
8
0-0
6
DOT
62
  4
10
925.838
20
255.758
30
0.0
11
935.838
21
265.758
31
0.0
0
LINE
5
25e3
8
0-0
6
CONTINUOUS
62
  7
10
935.838
20
410.459
30
0.0
11
925.838
21
410.459
31
0.0
0
LINE
5
25e4
8
0-0
6
CONTINUOUS
62
  7
10
935.838
20
372.963
30
0.0
11
935.838
21
410.459
31
0.0
0
LINE
5
25e5
8
0-0
6
CONTINUOUS
62
  7
10
925.838
20
372.963
30
0.0
11
925.838
21
410.459
31
0.0
0
LINE
5
25e6
8
0-0
6
CONTINUOUS
62
  7
10
925.838
20
410.459
30
0.0
11
662.838
21
410.459
31
0.0
0
LINE
5
25e7
8
0-0
6
CONTINUOUS
62
  7
10
662.838
20
372.963
30
0.0
11
662.838
21
410.459
31
0.0
0
LINE
5
25e8
8
0-0
6
CONTINUOUS
62
  7
10
549.324
20
993.233
30
0.0
11
549.324
21
988.233
31
0.0
0
LINE
5
25e9
8
0-0
6
CONTINUOUS
62
  7
10
614.189
20
993.233
30
0.0
11
549.324
21
993.233
31
0.0
0
LINE
5
25ea
8
0-0
6
CONTINUOUS
62
  7
10
614.189
20
988.233
30
0.0
11
549.324
21
988.233
31
0.0
0
LINE
5
25eb
8
0-0
6
CONTINUOUS
62
  7
10
549.324
20
988.233
30
0.0
11
549.324
21
699.233
31
0.0
0
LINE
5
25ec
8
0-0
6
CONTINUOUS
62
  7
10
614.189
20
699.233
30
0.0
11
549.324
21
699.233
31
0.0
0
LINE
5
25ed
8
0-0
6
CONTINUOUS
62
  7
10
549.324
20
346.351
30
0.0
11
549.324
21
251.351
31
0.0
0
LINE
5
25ee
8
0-0
6
CONTINUOUS
62
  7
10
614.189
20
346.351
30
0.0
11
549.324
21
346.351
31
0.0
0
LINE
5
25ef
8
0-0
6
CONTINUOUS
62
  7
10
614.189
20
251.351
30
0.0
11
549.324
21
251.351
31
0.0
0
LINE
5
25f0
8
0-0
6
CONTINUOUS
62
  7
10
1047.973
20
993.233
30
0.0
11
1047.973
21
694.233
31
0.0
0
LINE
5
25f1
8
0-0
6
CONTINUOUS
62
  7
10
970.946
20
993.233
30
0.0
11
1047.973
21
993.233
31
0.0
0
LINE
5
25f2
8
0-0
6
CONTINUOUS
62
  7
10
970.946
20
694.233
30
0.0
11
1047.973
21
694.233
31
0.0
0
LINE
5
25f3
8
0-0
6
CONTINUOUS
62
  7
10
1047.973
20
321.710
30
0.0
11
1047.973
21
251.351
31
0.0
0
LINE
5
25f4
8
0-0
6
CONTINUOUS
62
  7
10
970.946
20
321.710
30
0.0
11
1047.973
21
321.710
31
0.0
0
LINE
5
25f5
8
0-0
6
CONTINUOUS
62
  7
10
970.946
20
251.351
30
0.0
11
1047.973
21
251.351
31
0.0
0
LINE
5
25f6
8
0-0
6
CONTINUOUS
62
  7
10
932.079
20
280.318
30
0.0
11
952.168
21
355.292
31
0.0
0
LINE
5
25f7
8
0-0
6
CONTINUOUS
62
  7
10
952.168
20
355.292
30
0.0
11
966.405
21
355.292
31
0.0
0
CIRCLE
5
25f8
8
0-0
6
CONTINUOUS
62
  7
10
743.838
20
973.233
30
0.0
40
3.000
0
CIRCLE
5
25f9
8
0-0
6
CONTINUOUS
62
  7
10
855.838
20
973.233
30
0.0
40
3.000
0
ARC
5
25fa
8
0-0
6
CONTINUOUS
62
  7
10
1539.609
20
524.077
30
0.0
40
228.526
50
242.130844
51
284.299927
0
ARC
5
25fb
8
0-0
6
CONTINUOUS
62
  7
10
1409.351
20
231.561
30
0.0
40
116.321
50
99.050079
51
118.945694
0
ARC
5
25fc
8
0-0
6
CONTINUOUS
62
  7
10
1391.698
20
332.597
30
0.0
40
13.852
50
52.682190
51
92.663986
0
ARC
5
25fd
8
0-0
6
CONTINUOUS
62
  7
10
1591.228
20
596.531
30
0.0
40
317.015
50
232.921234
51
239.651611
0
ARC
5
25fe
8
0-0
6
CONTINUOUS
62
  7
10
1541.024
20
532.015
30
0.0
40
236.218
50
242.254501
51
242.727325
0
ARC
5
25ff
8
0-0
6
CONTINUOUS
62
  7
10
1292.571
20
631.030
30
0.0
40
328.298
50
239.933670
51
280.616364
0
ARC
5
2600
8
0-0
6
CONTINUOUS
62
  7
10
990.135
20
728.999
30
0.0
40
64.473
50
184.239059
51
212.630981
0
ARC
5
2601
8
0-0
6
CONTINUOUS
62
  7
10
889.146
20
450.210
30
0.0
40
136.720
50
285.132996
51
289.969330
0
ARC
5
2602
8
0-0
6
CONTINUOUS
62
  7
10
826.355
20
631.030
30
0.0
40
328.298
50
240.127335
51
280.616364
0
CIRCLE
5
2603
8
ADD_LINE
6
HIDDEN
62
  3
10
887.838
20
251.351
30
0.0
40
3.000
0
TEXT
5
2604
100
AcDbEntity
8
0-0
62
7
100
AcDbText
10
1708.663
20
350.990
30
0.0
40
9.750
41
1.000
50
0.000
1
すり合せ部分
100
AcDbText
0
TEXT
5
2605
100
AcDbEntity
8
0-0
62
7
100
AcDbText
10
429.628
20
1198.436
30
0.0
40
9.750
41
0.800
50
0.001
1
65
100
AcDbText
0
TEXT
5
2606
100
AcDbEntity
8
0-0
62
7
100
AcDbText
10
784.463
20
1198.436
30
0.0
40
9.750
41
0.800
50
0.000
1
262
100
AcDbText
0
TEXT
5
2607
100
AcDbEntity
8
0-0
62
7
100
AcDbText
10
1183.507
20
1198.436
30
0.0
40
9.750
41
0.800
50
0.000
1
16
100
AcDbText
0
TEXT
5
2608
100
AcDbEntity
8
0-0
62
7
100
AcDbText
10
417.010
20
566.003
30
0.0
40
9.750
41
0.800
50
0.000
1
90
100
AcDbText
0
TEXT
5
2609
100
AcDbEntity
8
0-0
62
7
100
AcDbText
10
1201.507
20
566.003
30
0.0
40
9.750
41
0.800
50
0.000
1
52
100
AcDbText
0
TEXT
5
260a
100
AcDbEntity
8
0-0
62
7
100
AcDbText
10
789.963
20
566.003
30
0.0
40
9.750
41
0.800
50
0.000
1
273
100
AcDbText
0
TEXT
5
260b
100
AcDbEntity
8
0-0
62
7
100
AcDbText
10
784.963
20
602.490
30
0.0
40
9.750
41
0.800
50
0.000
1
263
100
AcDbText
0
TEXT
5
260c
100
AcDbEntity
8
0-0
62
7
100
AcDbText
10
924.588
20
602.490
30
0.0
40
9.750
41
0.800
50
0.000
1
10
100
AcDbText
0
TEXT
5
260d
100
AcDbEntity
8
0-0
62
7
100
AcDbText
10
789.963
20
468.706
30
0.0
40
9.750
41
0.800
50
0.000
1
273
100
AcDbText
0
TEXT
5
260e
100
AcDbEntity
8
0-0
62
7
100
AcDbText
10
765.963
20
436.908
30
0.0
40
9.750
41
0.800
50
0.000
1
225
100
AcDbText
0
TEXT
5
260f
100
AcDbEntity
8
0-0
62
7
100
AcDbText
10
905.588
20
436.908
30
0.0
40
9.750
41
0.800
50
0.000
1
48
100
AcDbText
0
TEXT
5
2610
100
AcDbEntity
8
0-0
62
7
100
AcDbText
10
1231.218
20
436.908
30
0.0
40
9.750
41
0.800
50
0.000
1
225
100
AcDbText
0
TEXT
5
2611
100
AcDbEntity
8
0-0
62
7
100
AcDbText
10
1476.218
20
436.908
30
0.0
40
9.750
41
0.800
50
0.000
1
265
100
AcDbText
0
TEXT
5
2612
100
AcDbEntity
8
0-0
62
7
100
AcDbText
10
924.588
20
412.959
30
0.0
40
9.750
41
0.800
50
0.000
1
10
100
AcDbText
0
TEXT
5
2613
100
AcDbEntity
8
0-0
62
7
100
AcDbText
10
784.963
20
412.959
30
0.0
40
9.750
41
0.800
50
0.000
1
263
100
AcDbText
0
TEXT
5
2614
100
AcDbEntity
8
0-0
62
7
100
AcDbText
10
546.824
20
987.608
30
0.0
40
9.750
41
0.800
50
90.000
1
5
100
AcDbText
0
TEXT
5
2615
100
AcDbEntity
8
0-0
62
7
100
AcDbText
10
546.824
20
834.358
30
0.0
40
9.750
41
0.800
50
90.000
1
289
100
AcDbText
0
TEXT
5
2616
100
AcDbEntity
8
0-0
62
7
100
AcDbText
10
546.824
20
292.601
30
0.0
40
9.750
41
0.800
50
90.000
1
95
100
AcDbText
0
TEXT
5
2617
100
AcDbEntity
8
0-0
62
7
100
AcDbText
10
1045.473
20
834.358
30
0.0
40
9.750
41
0.800
50
90.000
1
299
100
AcDbText
0
TEXT
5
2618
100
AcDbEntity
8
0-0
62
7
100
AcDbText
10
1045.473
20
280.281
30
0.0
40
9.750
41
0.800
50
90.000
1
70
100
AcDbText
0
TEXT
5
2619
100
AcDbEntity
8
0-0
62
7
100
AcDbText
10
975.492
20
350.990
30
0.0
40
9.750
41
1.000
50
0.000
1
すり合せ部分
100
AcDbText
0
POINT
5
261a
8
0-0
62
  7
10
403.378
20
1195.936
30
0.0
0
POINT
5
261b
8
0-0
62
  7
10
468.378
20
1195.936
30
0.0
0
POINT
5
261c
8
0-0
62
  7
10
662.838
20
1195.936
30
0.0
0
POINT
5
261d
8
0-0
62
  7
10
924.838
20
1195.936
30
0.0
0
POINT
5
261e
8
0-0
62
  7
10
1181.757
20
1195.936
30
0.0
0
POINT
5
261f
8
0-0
62
  7
10
1197.757
20
1195.936
30
0.0
0
POINT
5
2620
8
0-0
62
  7
10
378.141
20
563.503
30
0.0
0
POINT
5
2621
8
0-0
62
  7
10
468.378
20
563.503
30
0.0
0
POINT
5
2622
8
0-0
62
  7
10
1181.757
20
563.503
30
0.0
0
POINT
5
2623
8
0-0
62
  7
10
1233.757
20
563.503
30
0.0
0
POINT
5
2624
8
0-0
62
  7
10
662.838
20
563.503
30
0.0
0
POINT
5
2625
8
0-0
62
  7
10
935.838
20
563.503
30
0.0
0
POINT
5
2626
8
0-0
62
  7
10
662.838
20
599.990
30
0.0
0
POINT
5
2627
8
0-0
62
  7
10
925.838
20
599.990
30
0.0
0
POINT
5
2628
8
0-0
62
  7
10
935.838
20
599.990
30
0.0
0
POINT
5
2629
8
0-0
62
  7
10
662.838
20
466.206
30
0.0
0
POINT
5
262a
8
0-0
62
  7
10
935.838
20
466.206
30
0.0
0
POINT
5
262b
8
0-0
62
  7
10
662.838
20
434.408
30
0.0
0
POINT
5
262c
8
0-0
62
  7
10
887.838
20
434.408
30
0.0
0
POINT
5
262d
8
0-0
62
  7
10
935.838
20
434.408
30
0.0
0
POINT
5
262e
8
0-0
62
  7
10
1128.093
20
434.408
30
0.0
0
POINT
5
262f
8
0-0
62
  7
10
1353.093
20
434.408
30
0.0
0
POINT
5
2630
8
0-0
62
  7
10
1353.093
20
434.408
30
0.0
0
POINT
5
2631
8
0-0
62
  7
10
1618.093
20
434.408
30
0.0
0
POINT
5
2632
8
0-0
62
  7
10
935.838
20
410.459
30
0.0
0
POINT
5
2633
8
0-0
62
  7
10
925.838
20
410.459
30
0.0
0
POINT
5
2634
8
0-0
62
  7
10
662.838
20
410.459
30
0.0
0
POINT
5
2635
8
0-0
62
  7
10
549.324
20
993.233
30
0.0
0
POINT
5
2636
8
0-0
62
  7
10
549.324
20
988.233
30
0.0
0
POINT
5
2637
8
0-0
62
  7
10
549.324
20
699.233
30
0.0
0
POINT
5
2638
8
0-0
62
  7
10
549.324
20
346.351
30
0.0
0
POINT
5
2639
8
0-0
62
  7
10
549.324
20
251.351
30
0.0
0
POINT
5
263a
8
0-0
62
  7
10
1047.973
20
993.233
30
0.0
0
POINT
5
263b
8
0-0
62
  7
10
1047.973
20
694.233
30
0.0
0
POINT
5
263c
8
0-0
62
  7
10
1047.973
20
321.710
30
0.0
0
POINT
5
263d
8
0-0
62
  7
10
1047.973
20
251.351
30
0.0
0
ENDSEC
0
EOF
