0
SECTION
2
HEADER
  9
$EXTMIN
10
0
20
0
30
0
  9
$EXTMAX
10
1517.713
20
1196.153
30
0
  9
$LTSCALE
40
5.000
  9
$DIMSCALE
40
5.000
  9
$PDMODE
70
0
  9
$PDSIZE
40
40
0
ENDSEC
0
SECTION
2
TABLES
0
TABLE
2
LTYPE
70
9
0
LTYPE
5
1f4
2
CONTINUOUS
70
0
3
実線
72
65
73
0
40
0.0
0
LTYPE
5
1f5
2
DOT
70
0
3
--  --  --  --  --  --  --  --     
72
65
73
2
40
5.000
49
1.000
49
-4.000
0
LTYPE
5
1f6
2
DASHED
70
0
3
----    ----    ----    ----    
72
65
73
2
40
5.000
49
2.000
49
-3.000
0
LTYPE
5
1f7
2
DASHED2
70
0
3
------  ------  ------  ------ 
72
65
73
2
40
10.000
49
4.000
49
-6.000
0
LTYPE
5
1f8
2
CENTER
70
0
3
----- - ----- - ----- - ----- - 
72
65
73
4
40
9.000
49
6.000
49
-1.000
49
1.000
49
-1.000
0
LTYPE
5
1f9
2
CENTER2
70
0
3
----------  --  ----------  -- 
72
65
73
4
40
18.000
49
12.000
49
-2.000
49
2.000
49
-2.000
0
LTYPE
5
1fa
2
PHANTOM
70
0
3
--- - - --- - - --- - - --- - -
72
65
73
6
40
10.000
49
5.000
49
-1.000
49
1.000
49
-1.000
49
1.000
49
-1.000
0
LTYPE
5
1fb
2
PHANTOM2
70
0
3
--------  -  -  --------  -  -
72
65
73
6
40
16.000
49
6.000
49
-2.000
49
2.000
49
-2.000
49
2.000
49
-2.000
0
LTYPE
5
1fc
2
HIDDEN
70
0
3
-   -   -   -   -   -   -   -   
72
65
73
2
40
2.500
49
0.500
49
-2.000
0
ENDTAB
0
TABLE
2
STYLE
70
1
0
STYLE
5
1fd
100
AcDbSymbolTableRecord
100
AcDbTextStyleTableRecord
2
STANDARD
70
0
40
0.0
41
1.0
50
0.0
71
0
42
0.0
3
txt.shx
4
extfont.shx
0
STYLE
5
1fe
100
AcDbSymbolTableRecord
100
AcDbTextStyleTableRecord
2
TATEGAKI
70
4
40
0.0
41
1.0
50
0.0
71
0
42
0.0
3
txt.shx
4
extfont.shx
0
STYLE
5
1ff
100
AcDbSymbolTableRecord
100
AcDbTextStyleTableRecord
2
MT
70
0
40
0.0
41
1.0
50
0.0
71
0
42
0.0
3
MS Mincho
4

0
STYLE
5
200
100
AcDbSymbolTableRecord
100
AcDbTextStyleTableRecord
2
TMT
70
4
40
0.0
41
1.0
50
0.0
71
0
42
0.0
3
@MS Mincho
4

0
ENDTAB
0
TABLE
2
LAYER
5
27c4
100
AcDbSymbolTable
70
10
0
LAYER
5
27c5
100
AcDbSymbolTableRecord
100
AcDbLayerTableRecord
2
0
70
64
62
  7
  6
CONTINUOUS
0
LAYER
5
27c6
100
AcDbSymbolTableRecord
100
AcDbLayerTableRecord
2
0-0
70
64
62
  7
  6
CONTINUOUS
0
LAYER
5
27c7
100
AcDbSymbolTableRecord
100
AcDbLayerTableRecord
2
0-1
70
64
62
  7
  6
CONTINUOUS
0
LAYER
5
27c8
100
AcDbSymbolTableRecord
100
AcDbLayerTableRecord
2
ADD_LINE
70
64
62
  -7
  6
CONTINUOUS
0
ENDTAB
0
ENDSEC
0
SECTION
2
ENTITIES
0
LINE
5
27c9
8
0-0
6
CONTINUOUS
62
  7
10
784.995
20
1029.476
30
0.0
11
827.995
21
1029.476
31
0.0
0
LINE
5
27ca
8
0-0
6
CONTINUOUS
62
  7
10
829.995
20
1069.476
30
0.0
11
827.995
21
1029.476
31
0.0
0
LINE
5
27cb
8
0-0
6
CONTINUOUS
62
  7
10
854.995
20
1069.476
30
0.0
11
854.995
21
1061.476
31
0.0
0
LINE
5
27cc
8
0-0
6
CONTINUOUS
62
  7
10
854.995
20
1061.476
30
0.0
11
1084.995
21
1061.476
31
0.0
0
LINE
5
27cd
8
0-0
6
CONTINUOUS
62
  7
10
1049.995
20
1061.476
30
0.0
11
1039.995
21
1069.476
31
0.0
0
LINE
5
27ce
8
0-0
6
CONTINUOUS
62
  7
10
829.995
20
1069.476
30
0.0
11
1039.995
21
1069.476
31
0.0
0
LINE
5
27cf
8
0-0
6
CONTINUOUS
62
  7
10
1084.995
20
1061.476
30
0.0
11
1084.995
21
772.476
31
0.0
0
LINE
5
27d0
8
0-0
6
CONTINUOUS
62
  7
10
774.995
20
762.476
30
0.0
11
862.995
21
762.476
31
0.0
0
LINE
5
27d1
8
0-0
6
CONTINUOUS
62
  7
10
887.995
20
772.476
30
0.0
11
1084.995
21
772.476
31
0.0
0
LINE
5
27d2
8
0-0
6
CONTINUOUS
62
  7
10
774.995
20
762.476
30
0.0
11
862.995
21
762.476
31
0.0
0
LINE
5
27d3
8
0-0
6
CONTINUOUS
62
  7
10
862.995
20
776.226
30
0.0
11
862.995
21
776.680
31
0.0
0
LINE
5
27d4
8
0-0
6
CONTINUOUS
62
  7
10
774.995
20
776.226
30
0.0
11
774.995
21
762.476
31
0.0
0
LINE
5
27d5
8
0-0
6
CONTINUOUS
62
  7
10
784.995
20
1029.476
30
0.0
11
784.995
21
788.819
31
0.0
0
LINE
5
27d6
8
0-0
6
CONTINUOUS
62
  7
10
862.995
20
776.226
30
0.0
11
862.995
21
762.476
31
0.0
0
LINE
5
27d7
8
0-0
6
CONTINUOUS
62
  7
10
862.929
20
776.236
30
0.0
11
887.995
21
772.476
31
0.0
0
LINE
5
27d8
8
0-0
6
CONTINUOUS
62
  7
10
1084.995
20
484.988
30
0.0
11
1084.995
21
446.988
31
0.0
0
LINE
5
27d9
8
0-0
6
CONTINUOUS
62
  7
10
1384.369
20
1061.476
30
0.0
11
1449.369
21
1061.476
31
0.0
0
LINE
5
27da
8
0-0
6
CONTINUOUS
62
  7
10
1474.369
20
837.870
30
0.0
11
1449.369
21
1061.476
31
0.0
0
LINE
5
27db
8
0-0
6
CONTINUOUS
62
  7
10
1404.369
20
847.869
30
0.0
11
1404.369
21
781.476
31
0.0
0
LINE
5
27dc
8
0-0
6
CONTINUOUS
62
  7
10
1473.251
20
847.869
30
0.0
11
1404.369
21
847.869
31
0.0
0
LINE
5
27dd
8
0-0
6
CONTINUOUS
62
  7
10
1403.369
20
781.476
30
0.0
11
1404.369
21
781.476
31
0.0
0
LINE
5
27de
8
0-0
6
CONTINUOUS
62
  7
10
1473.251
20
848.870
30
0.0
11
1403.369
21
848.870
31
0.0
0
LINE
5
27df
8
0-0
6
CONTINUOUS
62
  7
10
1403.369
20
848.870
30
0.0
11
1403.369
21
781.476
31
0.0
0
LINE
5
27e0
8
0-0
6
CONTINUOUS
62
  7
10
1384.369
20
1061.476
30
0.0
11
1384.369
21
772.476
31
0.0
0
LINE
5
27e1
8
0-0
6
CONTINUOUS
62
  7
10
495.104
20
1069.476
30
0.0
11
495.104
21
1061.476
31
0.0
0
LINE
5
27e2
8
0-0
6
CONTINUOUS
62
  7
10
448.104
20
768.747
30
0.0
11
446.327
21
785.654
31
0.0
0
LINE
5
27e3
8
0-0
6
CONTINUOUS
62
  7
10
493.104
20
773.476
30
0.0
11
448.104
21
768.747
31
0.0
0
LINE
5
27e4
8
0-0
6
CONTINUOUS
62
  7
10
493.104
20
1061.476
30
0.0
11
493.104
21
773.476
31
0.0
0
LINE
5
27e5
8
0-0
6
CONTINUOUS
62
  7
10
475.104
20
788.678
30
0.0
11
446.327
21
785.654
31
0.0
0
LINE
5
27e6
8
0-0
6
CONTINUOUS
62
  7
10
475.104
20
1069.476
30
0.0
11
475.104
21
788.678
31
0.0
0
LINE
5
27e7
8
0-0
6
CONTINUOUS
62
  7
10
493.104
20
773.476
30
0.0
11
529.104
21
777.260
31
0.0
0
LINE
5
27e8
8
0-0
6
CONTINUOUS
62
  7
10
475.104
20
1069.476
30
0.0
11
522.731
21
1069.476
31
0.0
0
LINE
5
27e9
8
0-0
6
CONTINUOUS
62
  7
10
493.104
20
1061.476
30
0.0
11
529.104
21
1061.476
31
0.0
0
LINE
5
27ea
8
0-0
6
CONTINUOUS
62
  7
10
529.104
20
1061.476
30
0.0
11
529.104
21
777.260
31
0.0
0
LINE
5
27eb
8
0-0
6
CONTINUOUS
62
  7
10
522.731
20
1069.476
30
0.0
11
522.731
21
1061.476
31
0.0
0
LINE
5
27ec
8
0-0
6
CONTINUOUS
62
  7
10
475.104
20
1193.653
30
0.0
11
493.104
21
1193.653
31
0.0
0
LINE
5
27ed
8
0-0
6
CONTINUOUS
62
  7
10
475.104
20
1096.355
30
0.0
11
475.104
21
1193.653
31
0.0
0
LINE
5
27ee
8
0-0
6
CONTINUOUS
62
  7
10
493.104
20
1096.355
30
0.0
11
493.104
21
1193.653
31
0.0
0
LINE
5
27ef
8
0-0
6
CONTINUOUS
62
  7
10
784.995
20
1193.653
30
0.0
11
1084.995
21
1193.653
31
0.0
0
LINE
5
27f0
8
0-0
6
CONTINUOUS
62
  7
10
784.995
20
1096.355
30
0.0
11
784.995
21
1193.653
31
0.0
0
LINE
5
27f1
8
0-0
6
CONTINUOUS
62
  7
10
1084.995
20
1096.355
30
0.0
11
1084.995
21
1193.653
31
0.0
0
LINE
5
27f2
8
0-0
6
CONTINUOUS
62
  7
10
1384.369
20
1193.653
30
0.0
11
1449.369
21
1193.653
31
0.0
0
LINE
5
27f3
8
0-0
6
CONTINUOUS
62
  7
10
1384.369
20
1096.355
30
0.0
11
1384.369
21
1193.653
31
0.0
0
LINE
5
27f4
8
0-0
6
CONTINUOUS
62
  7
10
1449.369
20
1096.355
30
0.0
11
1449.369
21
1193.653
31
0.0
0
LINE
5
27f5
8
0-0
6
CONTINUOUS
62
  7
10
784.995
20
1149.058
30
0.0
11
829.995
21
1149.058
31
0.0
0
LINE
5
27f6
8
0-0
6
CONTINUOUS
62
  7
10
784.995
20
1096.355
30
0.0
11
784.995
21
1149.058
31
0.0
0
LINE
5
27f7
8
0-0
6
CONTINUOUS
62
  7
10
829.995
20
1096.355
30
0.0
11
829.995
21
1149.058
31
0.0
0
LINE
5
27f8
8
0-0
6
CONTINUOUS
62
  7
10
448.104
20
658.518
30
0.0
11
493.104
21
658.518
31
0.0
0
LINE
5
27f9
8
0-0
6
CONTINUOUS
62
  7
10
448.104
20
723.382
30
0.0
11
448.104
21
658.518
31
0.0
0
LINE
5
27fa
8
0-0
6
CONTINUOUS
62
  7
10
493.104
20
723.382
30
0.0
11
493.104
21
658.518
31
0.0
0
LINE
5
27fb
8
0-0
6
CONTINUOUS
62
  7
10
784.995
20
658.518
30
0.0
11
1084.995
21
658.518
31
0.0
0
LINE
5
27fc
8
0-0
6
CONTINUOUS
62
  7
10
784.995
20
723.382
30
0.0
11
784.995
21
658.518
31
0.0
0
LINE
5
27fd
8
0-0
6
CONTINUOUS
62
  7
10
1084.995
20
723.382
30
0.0
11
1084.995
21
658.518
31
0.0
0
LINE
5
27fe
8
0-0
6
CONTINUOUS
62
  7
10
1384.369
20
658.518
30
0.0
11
1474.369
21
658.518
31
0.0
0
LINE
5
27ff
8
0-0
6
CONTINUOUS
62
  7
10
1384.369
20
723.382
30
0.0
11
1384.369
21
658.518
31
0.0
0
LINE
5
2800
8
0-0
6
CONTINUOUS
62
  7
10
1474.369
20
723.382
30
0.0
11
1474.369
21
658.518
31
0.0
0
LINE
5
2801
8
0-0
6
CONTINUOUS
62
  7
10
1067.995
20
397.988
30
0.0
11
1084.995
21
397.988
31
0.0
0
LINE
5
2802
8
0-0
6
CONTINUOUS
62
  7
10
1084.995
20
484.988
30
0.0
11
1084.995
21
397.988
31
0.0
0
LINE
5
2803
8
0-0
6
CONTINUOUS
62
  7
10
1067.995
20
430.988
30
0.0
11
1084.995
21
430.988
31
0.0
0
LINE
5
2804
8
0-0
6
CONTINUOUS
62
  7
10
1067.995
20
438.546
30
0.0
11
1067.995
21
397.988
31
0.0
0
LINE
5
2805
8
ADD_LINE
6
HIDDEN
62
  3
10
785.965
20
470.873
30
0.0
11
778.111
21
470.873
31
0.0
0
LINE
5
2806
8
ADD_LINE
6
HIDDEN
62
  3
10
785.965
20
470.873
30
0.0
11
790.110
21
470.873
31
0.0
0
LINE
5
2807
8
0-0
6
CONTINUOUS
62
  7
10
784.995
20
222.297
30
0.0
11
1084.995
21
222.297
31
0.0
0
LINE
5
2808
8
0-0
6
CONTINUOUS
62
  7
10
784.995
20
338.673
30
0.0
11
784.995
21
222.297
31
0.0
0
LINE
5
2809
8
0-0
6
CONTINUOUS
62
  7
10
1084.995
20
338.673
30
0.0
11
1084.995
21
222.297
31
0.0
0
LINE
5
280a
8
0-0
6
CONTINUOUS
62
  7
10
1265.033
20
1061.476
30
0.0
11
1265.033
21
772.476
31
0.0
0
LINE
5
280b
8
0-0
6
CONTINUOUS
62
  7
10
1339.415
20
1061.476
30
0.0
11
1265.033
21
1061.476
31
0.0
0
LINE
5
280c
8
0-0
6
CONTINUOUS
62
  7
10
1339.415
20
772.476
30
0.0
11
1265.033
21
772.476
31
0.0
0
LINE
5
280d
8
0-0
6
CONTINUOUS
62
  7
10
1187.270
20
1069.476
30
0.0
11
1187.270
21
772.476
31
0.0
0
LINE
5
280e
8
0-0
6
CONTINUOUS
62
  7
10
1119.651
20
1069.476
30
0.0
11
1187.270
21
1069.476
31
0.0
0
LINE
5
280f
8
0-0
6
CONTINUOUS
62
  7
10
1119.651
20
772.476
30
0.0
11
1187.270
21
772.476
31
0.0
0
LINE
5
2810
8
0-0
6
CONTINUOUS
62
  7
10
1153.502
20
1069.476
30
0.0
11
1153.502
21
1061.476
31
0.0
0
LINE
5
2811
8
0-0
6
CONTINUOUS
62
  7
10
1119.651
20
1069.476
30
0.0
11
1153.502
21
1069.476
31
0.0
0
LINE
5
2812
8
0-0
6
CONTINUOUS
62
  7
10
1119.651
20
1061.476
30
0.0
11
1153.502
21
1061.476
31
0.0
0
LINE
5
2813
8
ADD_LINE
6
HIDDEN
62
  3
10
952.703
20
408.466
30
0.0
11
952.703
21
417.717
31
0.0
0
LINE
5
2814
8
0-0
6
CONTINUOUS
62
  7
10
1384.369
20
1061.476
30
0.0
11
1384.369
21
772.476
31
0.0
0
LINE
5
2815
8
0-0
6
CONTINUOUS
62
  7
10
1384.369
20
772.476
30
0.0
11
1429.359
21
772.476
31
0.0
0
LINE
5
2816
8
0-0
6
CONTINUOUS
62
  7
10
901.996
20
455.178
30
0.0
11
901.996
21
430.334
31
0.0
0
LINE
5
2817
8
0-0
6
CONTINUOUS
62
  7
10
900.995
20
456.468
30
0.0
11
900.995
21
429.510
31
0.0
0
LINE
5
2818
8
0-0
6
CONTINUOUS
62
  7
10
1018.995
20
451.012
30
0.0
11
1018.995
21
433.928
31
0.0
0
LINE
5
2819
8
0-0
6
CONTINUOUS
62
  7
10
1019.995
20
452.211
30
0.0
11
1019.995
21
433.154
31
0.0
0
LINE
5
281a
8
ADD_LINE
6
HIDDEN
62
  3
10
979.440
20
447.999
30
0.0
11
979.440
21
445.975
31
0.0
0
LINE
5
281b
8
0-0
6
CONTINUOUS
62
  7
10
897.995
20
459.339
30
0.0
11
897.995
21
428.450
31
0.0
0
LINE
5
281c
8
0-0
6
CONTINUOUS
62
  7
10
897.995
20
428.450
30
0.0
11
897.995
21
428.073
31
0.0
0
LINE
5
281d
8
0-0
6
CONTINUOUS
62
  7
10
1022.995
20
454.821
30
0.0
11
1022.995
21
431.881
31
0.0
0
LINE
5
281e
8
0-0
6
CONTINUOUS
62
  7
10
1187.270
20
484.988
30
0.0
11
1187.270
21
397.988
31
0.0
0
LINE
5
281f
8
0-0
6
CONTINUOUS
62
  7
10
1119.651
20
484.988
30
0.0
11
1187.270
21
484.988
31
0.0
0
LINE
5
2820
8
0-0
6
CONTINUOUS
62
  7
10
1119.651
20
397.988
30
0.0
11
1187.270
21
397.988
31
0.0
0
LINE
5
2821
8
0-0
6
CONTINUOUS
62
  7
10
1156.564
20
484.988
30
0.0
11
1156.564
21
446.988
31
0.0
0
LINE
5
2822
8
0-0
6
CONTINUOUS
62
  7
10
1119.651
20
484.988
30
0.0
11
1156.564
21
484.988
31
0.0
0
LINE
5
2823
8
0-0
6
CONTINUOUS
62
  7
10
1119.651
20
446.988
30
0.0
11
1156.564
21
446.988
31
0.0
0
LINE
5
2824
8
ADD_LINE
6
HIDDEN
62
  3
10
784.995
20
477.006
30
0.0
11
784.995
21
463.214
31
0.0
0
LINE
5
2825
8
ADD_LINE
6
HIDDEN
62
  3
10
784.995
20
477.006
30
0.0
11
784.995
21
502.711
31
0.0
0
LINE
5
2826
8
ADD_LINE
6
HIDDEN
62
  3
10
778.111
20
470.873
30
0.0
11
768.271
21
470.873
31
0.0
0
LINE
5
2827
8
ADD_LINE
6
HIDDEN
62
  3
10
790.110
20
470.873
30
0.0
11
795.131
21
470.873
31
0.0
0
LINE
5
2828
8
ADD_LINE
6
HIDDEN
62
  3
10
784.995
20
463.214
30
0.0
11
784.995
21
452.997
31
0.0
0
CIRCLE
5
2829
8
0-0
6
CONTINUOUS
62
  7
10
819.995
20
467.484
30
0.0
40
45.000
0
CIRCLE
5
282a
8
ADD_LINE
6
HIDDEN
62
  3
10
784.995
20
470.873
30
0.0
40
3.000
0
CIRCLE
5
282b
8
0-0
6
CONTINUOUS
62
  7
10
897.995
20
1044.476
30
0.0
40
3.000
0
CIRCLE
5
282c
8
0-0
6
CONTINUOUS
62
  7
10
997.995
20
1044.476
30
0.0
40
3.000
0
ARC
5
282d
8
0-0
6
CONTINUOUS
62
  7
10
754.364
20
802.876
30
0.0
40
33.702
50
307.745422
51
335.349304
0
CIRCLE
5
282e
8
0-0
6
CONTINUOUS
62
  7
10
826.995
20
882.476
30
0.0
40
3.000
0
CIRCLE
5
282f
8
0-0
6
CONTINUOUS
62
  7
10
826.995
20
858.476
30
0.0
40
3.000
0
ARC
5
2830
8
0-0
6
CONTINUOUS
62
  7
10
970.085
20
722.390
30
0.0
40
263.751
50
245.991013
51
295.828491
0
ARC
5
2831
8
0-0
6
CONTINUOUS
62
  7
10
952.499
20
692.471
30
0.0
40
278.957
50
248.282578
51
298.357300
0
ARC
5
2832
8
0-0
6
CONTINUOUS
62
  7
10
1482.508
20
803.619
30
0.0
40
35.204
50
463.367249
51
183.489578
0
ARC
5
2833
8
0-0
6
CONTINUOUS
62
  7
10
1461.969
20
772.317
30
0.0
40
32.610
50
476.595825
51
539.719482
0
CIRCLE
5
2834
8
ADD_LINE
6
HIDDEN
62
  3
10
952.703
20
413.514
30
0.0
40
3.000
0
ARC
5
2835
8
0-0
6
CONTINUOUS
62
  7
10
818.995
20
830.438
30
0.0
40
80.962
50
237.079987
51
302.920013
0
ARC
5
2836
8
0-0
6
CONTINUOUS
62
  7
10
952.499
20
692.471
30
0.0
40
267.957
50
258.918243
51
284.589417
0
ARC
5
2837
8
0-0
6
CONTINUOUS
62
  7
10
952.499
20
692.471
30
0.0
40
266.957
50
259.094849
51
284.423584
0
ARC
5
2838
8
0-0
6
CONTINUOUS
62
  7
10
970.085
20
722.390
30
0.0
40
275.751
50
255.704422
51
280.216736
0
ARC
5
2839
8
0-0
6
CONTINUOUS
62
  7
10
970.085
20
722.390
30
0.0
40
274.751
50
255.435913
51
280.466309
0
ARC
5
283a
8
0-0
6
CONTINUOUS
62
  7
10
960.239
20
429.179
30
0.0
40
0.308
50
191.168747
51
348.831238
0
ARC
5
283b
8
0-0
6
CONTINUOUS
62
  7
10
978.525
20
433.221
30
0.0
40
19.035
50
163.874359
51
192.462479
0
ARC
5
283c
8
0-0
6
CONTINUOUS
62
  7
10
941.952
20
433.221
30
0.0
40
19.035
50
347.537537
51
376.125641
0
ARC
5
283d
8
0-0
6
CONTINUOUS
62
  7
10
968.987
20
424.749
30
0.0
40
9.657
50
57.056473
51
149.776825
0
ARC
5
283e
8
0-0
6
CONTINUOUS
62
  7
10
968.176
20
427.223
30
0.0
40
8.275
50
42.885696
51
151.999634
0
ARC
5
283f
8
0-0
6
CONTINUOUS
62
  7
10
965.601
20
432.067
30
0.0
40
5.672
50
99.829773
51
146.282639
0
ARC
5
2840
8
0-0
6
CONTINUOUS
62
  7
10
959.914
20
440.805
30
0.0
40
5.672
50
279.829407
51
326.282288
0
ARC
5
2841
8
0-0
6
CONTINUOUS
62
  7
10
951.490
20
424.749
30
0.0
40
9.657
50
390.223175
51
482.943542
0
ARC
5
2842
8
0-0
6
CONTINUOUS
62
  7
10
952.301
20
427.223
30
0.0
40
8.275
50
388.000366
51
497.114319
0
ARC
5
2843
8
0-0
6
CONTINUOUS
62
  7
10
954.877
20
432.067
30
0.0
40
5.672
50
393.717346
51
440.170227
0
ARC
5
2844
8
0-0
6
CONTINUOUS
62
  7
10
960.563
20
440.805
30
0.0
40
5.672
50
213.717712
51
260.170593
0
CIRCLE
5
2845
8
0-0
6
CONTINUOUS
62
  7
10
970.238
20
428.691
30
0.0
40
0.940
0
ARC
5
2846
8
0-0
6
CONTINUOUS
62
  7
10
986.095
20
438.816
30
0.0
40
3.898
50
328.636292
51
71.074326
0
ARC
5
2847
8
0-0
6
CONTINUOUS
62
  7
10
985.994
20
438.520
30
0.0
40
4.211
50
71.074631
51
136.999283
0
ARC
5
2848
8
0-0
6
CONTINUOUS
62
  7
10
1001.717
20
435.787
30
0.0
40
3.803
50
206.521713
51
79.828934
0
ARC
5
2849
8
0-0
6
CONTINUOUS
62
  7
10
985.102
20
439.106
30
0.0
40
3.164
50
22.679138
51
133.741043
0
ARC
5
284a
8
0-0
6
CONTINUOUS
62
  7
10
983.140
20
438.286
30
0.0
40
5.291
50
334.384155
51
22.679184
0
ARC
5
284b
8
0-0
6
CONTINUOUS
62
  7
10
1001.767
20
417.167
30
0.0
40
22.126
50
109.266510
51
135.068024
0
ARC
5
284c
8
0-0
6
CONTINUOUS
62
  7
10
998.965
20
424.225
30
0.0
40
15.510
50
108.049957
51
130.113876
0
ARC
5
284d
8
0-0
6
CONTINUOUS
62
  7
10
999.236
20
425.106
30
0.0
40
14.765
50
77.672256
51
110.109558
0
ARC
5
284e
8
0-0
6
CONTINUOUS
62
  7
10
998.797
20
425.664
30
0.0
40
13.125
50
82.786819
51
109.266510
0
ARC
5
284f
8
0-0
6
CONTINUOUS
62
  7
10
1000.387
20
435.579
30
0.0
40
3.107
50
344.536133
51
88.931183
0
ARC
5
2850
8
0-0
6
CONTINUOUS
62
  7
10
1000.708
20
435.490
30
0.0
40
2.774
50
210.336823
51
344.535950
0
ARC
5
2851
8
0-0
6
CONTINUOUS
62
  7
10
1001.805
20
448.758
30
0.0
40
9.392
50
276.288391
51
336.024231
0
ARC
5
2852
8
0-0
6
CONTINUOUS
62
  7
10
1004.446
20
444.514
30
0.0
40
5.956
50
268.797913
51
4.116562
0
ARC
5
2853
8
0-0
6
CONTINUOUS
62
  7
10
1009.291
20
440.702
30
0.0
40
4.379
50
31.617386
51
75.505051
0
ARC
5
2854
8
0-0
6
CONTINUOUS
62
  7
10
1011.543
20
443.752
30
0.0
40
1.658
50
332.936035
51
134.186981
0
ARC
5
2855
8
0-0
6
CONTINUOUS
62
  7
10
1009.253
20
442.110
30
0.0
40
3.050
50
68.178955
51
124.099670
0
ARC
5
2856
8
0-0
6
CONTINUOUS
62
  7
10
1008.997
20
444.492
30
0.0
40
1.461
50
17.941299
51
174.337448
0
ARC
5
2857
8
0-0
6
CONTINUOUS
62
  7
10
974.208
20
446.062
30
0.0
40
17.819
50
260.152771
51
328.635925
0
ARC
5
2858
8
0-0
6
CONTINUOUS
62
  7
10
973.075
20
446.854
30
0.0
40
18.384
50
264.056396
51
323.807129
0
CIRCLE
5
2859
8
0-0
6
CONTINUOUS
62
  7
10
950.233
20
428.712
30
0.0
40
0.940
0
ARC
5
285a
8
0-0
6
CONTINUOUS
62
  7
10
935.121
20
439.919
30
0.0
40
3.898
50
464.925659
51
207.363693
0
ARC
5
285b
8
0-0
6
CONTINUOUS
62
  7
10
935.202
20
439.617
30
0.0
40
4.211
50
399.000732
51
464.925354
0
ARC
5
285c
8
0-0
6
CONTINUOUS
62
  7
10
919.326
20
437.987
30
0.0
40
3.803
50
456.171082
51
329.478271
0
ARC
5
285d
8
0-0
6
CONTINUOUS
62
  7
10
936.132
20
440.138
30
0.0
40
3.164
50
402.258972
51
513.320862
0
ARC
5
285e
8
0-0
6
CONTINUOUS
62
  7
10
938.032
20
439.184
30
0.0
40
5.291
50
513.320801
51
201.615860
0
ARC
5
285f
8
0-0
6
CONTINUOUS
62
  7
10
917.978
20
419.416
30
0.0
40
22.126
50
400.931976
51
426.733490
0
ARC
5
2860
8
0-0
6
CONTINUOUS
62
  7
10
921.265
20
426.261
30
0.0
40
15.510
50
405.886108
51
427.950043
0
ARC
5
2861
8
0-0
6
CONTINUOUS
62
  7
10
921.056
20
427.159
30
0.0
40
14.765
50
425.890442
51
458.327759
0
ARC
5
2862
8
0-0
6
CONTINUOUS
62
  7
10
921.533
20
427.685
30
0.0
40
13.125
50
426.733490
51
453.213196
0
ARC
5
2863
8
0-0
6
CONTINUOUS
62
  7
10
920.639
20
437.686
30
0.0
40
3.107
50
447.068817
51
191.463852
0
ARC
5
2864
8
0-0
6
CONTINUOUS
62
  7
10
920.312
20
437.620
30
0.0
40
2.774
50
191.464066
51
325.663177
0
ARC
5
2865
8
0-0
6
CONTINUOUS
62
  7
10
920.143
20
450.933
30
0.0
40
9.392
50
199.975769
51
259.711609
0
ARC
5
2866
8
0-0
6
CONTINUOUS
62
  7
10
917.213
20
446.883
30
0.0
40
5.956
50
531.883423
51
267.202087
0
ARC
5
2867
8
0-0
6
CONTINUOUS
62
  7
10
912.114
20
443.419
30
0.0
40
4.379
50
460.494934
51
504.382629
0
ARC
5
2868
8
0-0
6
CONTINUOUS
62
  7
10
910.080
20
446.618
30
0.0
40
1.658
50
401.813019
51
203.063965
0
ARC
5
2869
8
0-0
6
CONTINUOUS
62
  7
10
912.250
20
444.820
30
0.0
40
3.050
50
411.900330
51
467.821045
0
ARC
5
286a
8
0-0
6
CONTINUOUS
62
  7
10
912.671
20
447.178
30
0.0
40
1.461
50
361.662537
51
518.058716
0
ARC
5
286b
8
0-0
6
CONTINUOUS
62
  7
10
947.485
20
446.318
30
0.0
40
17.819
50
207.364059
51
275.847229
0
ARC
5
286c
8
0-0
6
CONTINUOUS
62
  7
10
948.671
20
447.029
30
0.0
40
18.384
50
212.192886
51
271.943604
0
ARC
5
286d
8
0-0
6
CONTINUOUS
62
  7
10
899.073
20
458.965
30
0.0
40
1.141
50
93.902115
51
160.848801
0
ARC
5
286e
8
0-0
6
CONTINUOUS
62
  7
10
899.832
20
428.553
30
0.0
40
1.898
50
194.636703
51
243.847839
0
ARC
5
286f
8
0-0
6
CONTINUOUS
62
  7
10
1021.631
20
431.892
30
0.0
40
1.365
50
285.496216
51
359.502625
0
ARC
5
2870
8
0-0
6
CONTINUOUS
62
  7
10
1022.079
20
454.726
30
0.0
40
0.921
50
5.892807
51
95.208710
0
ARC
5
2871
8
0-0
6
CONTINUOUS
62
  7
10
970.085
20
722.390
30
0.0
40
271.751
50
254.835068
51
281.012451
0
ARC
5
2872
8
0-0
6
CONTINUOUS
62
  7
10
952.499
20
692.471
30
0.0
40
270.957
50
258.610718
51
284.861481
0
TEXT
5
2873
100
AcDbEntity
8
0-0
62
7
100
AcDbText
10
477.854
20
1196.153
30
0.0
40
9.750
41
0.800
50
0.000
1
18
100
AcDbText
0
TEXT
5
2874
100
AcDbEntity
8
0-0
62
7
100
AcDbText
10
925.620
20
1196.153
30
0.0
40
9.750
41
0.800
50
0.000
1
300
100
AcDbText
0
TEXT
5
2875
100
AcDbEntity
8
0-0
62
7
100
AcDbText
10
1410.619
20
1196.153
30
0.0
40
9.750
41
0.800
50
0.000
1
65
100
AcDbText
0
TEXT
5
2876
100
AcDbEntity
8
0-0
62
7
100
AcDbText
10
801.245
20
1151.558
30
0.0
40
9.750
41
0.800
50
0.000
1
45
100
AcDbText
0
TEXT
5
2877
100
AcDbEntity
8
0-0
62
7
100
AcDbText
10
464.354
20
661.017
30
0.0
40
9.750
41
0.800
50
0.000
1
45
100
AcDbText
0
TEXT
5
2878
100
AcDbEntity
8
0-0
62
7
100
AcDbText
10
925.620
20
661.017
30
0.0
40
9.750
41
0.800
50
0.000
1
300
100
AcDbText
0
TEXT
5
2879
100
AcDbEntity
8
0-0
62
7
100
AcDbText
10
1423.119
20
661.017
30
0.0
40
9.750
41
0.800
50
0.000
1
90
100
AcDbText
0
TEXT
5
287a
100
AcDbEntity
8
0-0
62
7
100
AcDbText
10
925.620
20
224.797
30
0.0
40
9.750
41
0.800
50
0.000
1
300
100
AcDbText
0
TEXT
5
287b
100
AcDbEntity
8
0-0
62
7
100
AcDbText
10
1262.533
20
907.601
30
0.0
40
9.750
41
0.800
50
90.000
1
289
100
AcDbText
0
TEXT
5
287c
100
AcDbEntity
8
0-0
62
7
100
AcDbText
10
1184.770
20
911.601
30
0.0
40
9.750
41
0.800
50
90.000
1
297
100
AcDbText
0
TEXT
5
287d
100
AcDbEntity
8
0-0
62
7
100
AcDbText
10
1151.002
20
1062.351
30
0.0
40
9.750
41
0.800
50
90.000
1
8
100
AcDbText
0
TEXT
5
287e
100
AcDbEntity
8
0-0
62
7
100
AcDbText
10
1184.770
20
435.238
30
0.0
40
9.750
41
0.800
50
90.000
1
87
100
AcDbText
0
TEXT
5
287f
100
AcDbEntity
8
0-0
62
7
100
AcDbText
10
1154.064
20
459.738
30
0.0
40
9.750
41
0.800
50
90.000
1
38
100
AcDbText
0
POINT
5
2880
8
0-0
62
  7
10
475.104
20
1193.653
30
0.0
0
POINT
5
2881
8
0-0
62
  7
10
493.104
20
1193.653
30
0.0
0
POINT
5
2882
8
0-0
62
  7
10
784.995
20
1193.653
30
0.0
0
POINT
5
2883
8
0-0
62
  7
10
1084.995
20
1193.653
30
0.0
0
POINT
5
2884
8
0-0
62
  7
10
1384.369
20
1193.653
30
0.0
0
POINT
5
2885
8
0-0
62
  7
10
1449.369
20
1193.653
30
0.0
0
POINT
5
2886
8
0-0
62
  7
10
784.995
20
1149.058
30
0.0
0
POINT
5
2887
8
0-0
62
  7
10
829.995
20
1149.058
30
0.0
0
POINT
5
2888
8
0-0
62
  7
10
448.104
20
658.518
30
0.0
0
POINT
5
2889
8
0-0
62
  7
10
493.104
20
658.518
30
0.0
0
POINT
5
288a
8
0-0
62
  7
10
784.995
20
658.518
30
0.0
0
POINT
5
288b
8
0-0
62
  7
10
1084.995
20
658.518
30
0.0
0
POINT
5
288c
8
0-0
62
  7
10
1384.369
20
658.518
30
0.0
0
POINT
5
288d
8
0-0
62
  7
10
1474.369
20
658.518
30
0.0
0
POINT
5
288e
8
0-0
62
  7
10
784.995
20
222.297
30
0.0
0
POINT
5
288f
8
0-0
62
  7
10
1084.995
20
222.297
30
0.0
0
POINT
5
2890
8
0-0
62
  7
10
1265.033
20
1061.476
30
0.0
0
POINT
5
2891
8
0-0
62
  7
10
1265.033
20
772.476
30
0.0
0
POINT
5
2892
8
0-0
62
  7
10
1187.270
20
1069.476
30
0.0
0
POINT
5
2893
8
0-0
62
  7
10
1187.270
20
772.476
30
0.0
0
POINT
5
2894
8
0-0
62
  7
10
1153.502
20
1069.476
30
0.0
0
POINT
5
2895
8
0-0
62
  7
10
1153.502
20
1061.476
30
0.0
0
POINT
5
2896
8
0-0
62
  7
10
1187.270
20
484.988
30
0.0
0
POINT
5
2897
8
0-0
62
  7
10
1187.270
20
397.988
30
0.0
0
POINT
5
2898
8
0-0
62
  7
10
1156.564
20
484.988
30
0.0
0
POINT
5
2899
8
0-0
62
  7
10
1156.564
20
446.988
30
0.0
0
ENDSEC
0
EOF
