  0
SECTION
  2
HEADER
  9
$ACADVER
  1
AC1009
  9
$INSBASE
 10
0
 20
0
 30
0
  9
$EXTMIN
 10
0
 20
0
  9
$EXTMAX
 10
420
 20
297
  9
$LIMMIN
 10
0
 20
0
  9
$LIMMAX
 10
420
 20
297
  9
$LTSCALE
 40
1
  0
ENDSEC
  0
SECTION
  2
TABLES
  0
TABLE
  2
LTYPE
 70
     9
  0
LTYPE
  2
CONTINUOUS
 70
    64
  3
実線
 72
    65
 73
     0
 40
0.0
  0
LTYPE
  2
DASHED1
 70
    64
  3
--  --  --  --  --  --  --  --  
 72
    65
 73
     2
 40
2.5
 49
1.25
 49
-1.25
  0
LTYPE
  2
DASHED2
 70
    64
  3
----    ----    ----    ----    
 72
    65
 73
     2
 40
5.0
 49
2.5
 49
-2.5
  0
LTYPE
  2
DASHED3
 70
    64
  3
------  ------  ------  ------  
 72
    65
 73
     2
 40
5.0
 49
3.75
 49
-1.25
  0
LTYPE
  2
CENTER1
 70
    64
  3
----- - ----- - ----- - ----- - 
 72
    65
 73
     4
 40
10.0
 49
6.25
 49
-1.25
 49
1.25
 49
-1.25
  0
LTYPE
  2
CENTER2
 70
    64
  3
----------  --  ----------  --  
 72
    65
 73
     4
 40
20.0
 49
12.5
 49
-2.5
 49
2.5
 49
-2.5
  0
LTYPE
  2
PHANTOM1
 70
    64
  3
--- - - --- - - --- - - --- - - 
 72
    65
 73
     6
 40
10.0
 49
3.25
 49
-1.25
 49
1.25
 49
-1.25
 49
1.25
 49
-1.25
  0
LTYPE
  2
PHANTOM2
 70
    64
  3
--------  -  -  --------  -  -  
 72
    65
 73
     6
 40
20.0
 49
10.0
 49
-2.5
 49
1.25
 49
-2.5
 49
1.25
 49
-2.5
  0
LTYPE
  2
DOT
 70
    64
  3
-   -   -   -   -   -   -   -   
 72
    65
 73
     2
 40
2.5
 49
0.625
 49
-1.875
  0
LTYPE
  2
DUMMY
 70
    64
  3
ダミー
 72
    65
 73
     0
 40
0.0
  0
LTYPE
  2
RAND1
 70
    64
  3
ランダム線1
 72
    65
 73
     4
 40
10.0
 49
1.0
 49
-2.0
 49
3.0
 49
-4.0
  0
LTYPE
  2
RAND2
 70
    64
  3
ランダム線2
 72
    65
 73
     4
 40
14.0
 49
2.0
 49
-3.0
 49
4.0
 49
-5.0
  0
LTYPE
  2
RAND3
 70
    64
  3
ランダム線3
 72
    65
 73
     4
 40
18.0
 49
3.0
 49
-4.0
 49
5.0
 49
-6.0
  0
LTYPE
  2
RAND4
 70
    64
  3
ランダム線4
 72
    65
 73
     4
 40
22.0
 49
4.0
 49
-5.0
 49
6.0
 49
-7.0
  0
LTYPE
  2
RAND5
 70
    64
  3
ランダム線5
 72
    65
 73
     4
 40
26.0
 49
5.0
 49
-6.0
 49
7.0
 49
-8.0
  0
LTYPE
  2
LONG1
 70
    64
  3
----------  --  ----------  --  
 72
    65
 73
     4
 40
40.0
 49
32.5
 49
-2.5
 49
2.5
 49
-2.5
  0
LTYPE
  2
LONG2
 70
    64
  3
--------  -  -  --------  -  -  
 72
    65
 73
     6
 40
40.0
 49
30.0
 49
-2.5
 49
1.25
 49
-2.5
 49
1.25
 49
-2.5
  0
LTYPE
  2
LONG3
 70
    64
  3
+++++++++++++++..+++++++++++++++
 72
    65
 73
     2
 40
40.0
 49
37.5
 49
-2.5
  0
LTYPE
  2
LONG4
 70
    64
  3
+++++++++++++++..+++++++++++++++
 72
    65
 73
     2
 40
80.0
 49
75.0
 49
-5.0
  0
LTYPE
  2
LONG5
 70
    64
  3
----------  --  ----------  --  
 72
    65
 73
     4
 40
60.0
 49
37.5
 49
-7.5
 49
7.5
 49
-7.5
  0
LTYPE
  2
dashed
 70
   64
  3
-------   -------------   ------
 72
   65
 73
    2
 40
7.5
 49
6
 49
-1.5
  0
LTYPE
  2
dashed_spaced
 70
   64
  3
----        --------        ----
 72
   65
 73
    2
 40
12
 49
6
 49
-6
  0
LTYPE
  2
long_dashed_dotted
 70
   64
  3
------------- --- --------------
 72
   65
 73
    4
 40
15.25
 49
12
 49
-1.5
 49
0.25
 49
-1.5
  0
LTYPE
  2
long_dashed_double-dotted
 70
   64
  3
----------- --- --- ------------
 72
   65
 73
    6
 40
17
 49
12
 49
-1.5
 49
0.25
 49
-1.5
 49
0.25
 49
-1.5
  0
LTYPE
  2
long_dashed_triplicate-dotted
 70
   64
  3
--------- --- --- --- ----------
 72
   65
 73
    8
 40
18.75
 49
12
 49
-1.5
 49
0.25
 49
-1.5
 49
0.25
 49
-1.5
 49
0.25
 49
-1.5
  0
LTYPE
  2
dotted
 70
   64
  3
   -       -       -       -    
 72
   65
 73
    2
 40
1.75
 49
0.25
 49
-1.5
  0
LTYPE
  2
chain
 70
   64
  3
-------------- -- --------------
 72
   65
 73
    4
 40
18.5
 49
12
 49
-1.5
 49
3.5
 49
-1.5
  0
LTYPE
  2
chain_double_dash
 70
   64
  3
------------ -- -- -------------
 72
   65
 73
    6
 40
23.5
 49
12
 49
-1.5
 49
3.5
 49
-1.5
 49
3.5
 49
-1.5
  0
LTYPE
  2
dashed_dotted
 70
   64
  3
-----------     -     ----------
 72
   65
 73
    4
 40
9.25
 49
6
 49
-1.5
 49
0.25
 49
-1.5
  0
LTYPE
  2
double-dashed_dotted
 70
   64
  3
------   -----------   -   -----
 72
   65
 73
    6
 40
16.75
 49
6
 49
-1.5
 49
6
 49
-1.5
 49
0.25
 49
-1.5
  0
LTYPE
  2
dashed_double-dotted
 70
   64
  3
---------    -    -    ---------
 72
   65
 73
    6
 40
11
 49
6
 49
-1.5
 49
0.25
 49
-1.5
 49
0.25
 49
-1.5
  0
LTYPE
  2
double-dashed_double-dotted
 70
   64
  3
-----   ---------   -   -   ----
 72
   65
 73
    8
 40
18.5
 49
6
 49
-1.5
 49
6
 49
-1.5
 49
0.25
 49
-1.5
 49
0.25
 49
-1.5
  0
LTYPE
  2
dashed_triplicate-dotted
 70
   64
  3
-------    -    -    -    ------
 72
   65
 73
    8
 40
12.75
 49
6
 49
-1.5
 49
0.25
 49
-1.5
 49
0.25
 49
-1.5
 49
0.25
 49
-1.5
  0
LTYPE
  2
double-dashed_triplicate-dotted
 70
   64
  3
-----  ---------  -  -  -  -----
 72
   65
 73
   10
 40
20.25
 49
6
 49
-1.5
 49
6
 49
-1.5
 49
0.25
 49
-1.5
 49
0.25
 49
-1.5
 49
0.25
 49
-1.5
  0
LTYPE
  2
undefined
 70
   64
  3
--------------------------------
 72
   65
 73
    0
 40
0
  0
ENDTAB
  0
TABLE
  2
STYLE
  5
3
100
AcDbSymbolTable
 70
     1
  0
STYLE
  5
10
100
AcDbSymbolTableRecord
100
AcDbTextStyleTableRecord
  2
STANDARD
 70
     0
 40
0.0
 41
1.0
 50
0.0
 71
     0
 42
0.2
  3
txt
  4
bigfont.shx
  0
STYLE
  5
26
100
AcDbSymbolTableRecord
100
AcDbTextStyleTableRecord
  2
TATEGAKI
 70
    68
 40
0.0
 41
1.0
 50
0.0
 71
     0
 42
1.0
  3
txt
  4
bigfont.shx
  0
ENDTAB
  0
TABLE
  2
LAYER
 70
   11
  0
LAYER
  2
_0-0_
 70
   64
 62
    7
  6
CONTINUOUS
  0
LAYER
  2
_0-1_
 70
   64
 62
    7
  6
CONTINUOUS
  0
LAYER
  2
_1-0_
 70
   64
 62
    7
  6
CONTINUOUS
  0
LAYER
  2
_1-1_
 70
   64
 62
    7
  6
CONTINUOUS
  0
LAYER
  2
_1-2_
 70
   64
 62
    7
  6
CONTINUOUS
  0
LAYER
  2
_1-3_
 70
   64
 62
    7
  6
CONTINUOUS
  0
LAYER
  2
_1-4_
 70
   64
 62
    7
  6
CONTINUOUS
  0
LAYER
  2
_1-5_
 70
   64
 62
    7
  6
CONTINUOUS
  0
LAYER
  2
_1-9_
 70
   64
 62
    7
  6
CONTINUOUS
  0
LAYER
  2
_1-a_
 70
   64
 62
    7
  6
CONTINUOUS
  0
LAYER
  2
ADD_LINE
 70
   64
 62
    7
  6
CONTINUOUS
  0
ENDTAB
  0
ENDSEC
  0
SECTION
  2
BLOCKS
  0
ENDSEC
  0
SECTION
  2
ENTITIES
  0
LINE
  8
_0-0_
  6
CONTINUOUS
 62
    7
 10
211.80008518517315
 20
25.173528369770253
 11
211.80008518517315
 21
10.573505100116932
  0
LINE
  8
ADD_LINE
  6
DOT
 62
    7
 10
124.20008671105205
 20
22.330720599994862
 11
203.56305515587627
 21
22.330720599994862
  0
LINE
  8
_0-0_
  6
CONTINUOUS
 62
    7
 10
5.9400998336106454
 20
25.173528369770253
 11
411.09012424767315
 21
25.173528369770253
  0
LINE
  8
_1-0_
  6
CONTINUOUS
 62
    7
 10
122.13233741554055
 20
120.11152112806167
 11
367.47137121252115
 21
230.51409747149495
  0
LINE
  8
_1-0_
  6
CONTINUOUS
 62
    7
 10
127.05671155774917
 20
109.16845785604941
 11
372.39574535472974
 21
219.57104657147383
  0
LINE
  8
_1-0_
  6
CONTINUOUS
 62
    7
 10
128.698165481155
 20
105.52077422270904
 11
374.03723639410896
 21
215.92336293813347
  0
LINE
  8
_1-0_
  6
CONTINUOUS
 62
    7
 10
129.19060784417229
 20
104.42647160710516
 11
374.5296911291174
 21
214.82906032252959
  0
LINE
  8
_1-0_
  6
CONTINUOUS
 62
    7
 10
128.698165481155
 20
105.52077422270904
 11
127.73728241791596
 21
105.08837313265414
  0
LINE
  8
_1-0_
  6
CONTINUOUS
 62
    7
 10
127.73728241791596
 20
105.08837313265414
 11
128.22972478093328
 21
103.99407051705026
  0
LINE
  8
_1-0_
  6
CONTINUOUS
 62
    7
 10
129.19060784417229
 20
104.42647160710516
 11
128.22972478093328
 21
103.99407051705026
  0
LINE
  8
_1-0_
  6
CONTINUOUS
 62
    7
 10
130.91414992873734
 20
100.59640626649599
 11
126.53692709433066
 21
98.626655372413438
  0
LINE
  8
_1-0_
  6
CONTINUOUS
 62
    7
 10
129.19062021616344
 20
104.42647160710516
 11
130.91414992873734
 21
100.59640626649599
  0
LINE
  8
_1-0_
  6
CONTINUOUS
 62
    7
 10
117.755126953125
 20
118.14177641997468
 11
126.53692709433066
 21
98.626655372413438
  0
LINE
  8
_1-0_
  6
CONTINUOUS
 62
    7
 10
122.13233741554055
 20
120.11152112806167
 11
128.69817785314612
 21
105.52077422270904
  0
LINE
  8
_1-0_
  6
CONTINUOUS
 62
    7
 10
111.32608362146327
 20
125.11797105943835
 11
130.44907441010346
 21
126.48586788692991
  0
LINE
  8
_1-0_
  6
CONTINUOUS
 62
    7
 10
122.13233741554055
 20
120.11152112806167
 11
115.01935804212417
 21
116.91067669842695
  0
LINE
  8
_1-0_
  6
CONTINUOUS
 62
    7
 10
115.01935804212417
 20
116.91067669842695
 11
111.32608362146327
 21
125.11797105943835
  0
LINE
  8
_1-0_
  6
CONTINUOUS
 62
    7
 10
130.44908678209461
 20
126.48586788692991
 11
366.48648648648651
 21
232.70270270270271
  0
LINE
  8
_1-0_
  6
CONTINUOUS
 62
    7
 10
131.43394676414695
 20
124.297250283731
 11
130.44907441010346
 21
126.48586788692991
  0
LINE
  8
_1-0_
  6
CONTINUOUS
 62
    7
 10
128.69817785314612
 20
105.52077422270904
 11
127.0567239297403
 21
109.16845785604941
  0
LINE
  8
_1-0_
  6
CONTINUOUS
 62
    7
 10
127.0567239297403
 20
109.16845785604941
 11
134.35209119642104
 21
112.4513780748522
  0
LINE
  8
_1-0_
  6
CONTINUOUS
 62
    7
 10
134.35209119642104
 20
112.4513780748522
 11
135.993557491818
 21
108.80369444151184
  0
LINE
  8
_1-0_
  6
CONTINUOUS
 62
    7
 10
135.993557491818
 20
108.80369444151184
 11
128.69817785314612
 21
105.52077422270904
  0
LINE
  8
_1-0_
  6
CONTINUOUS
 62
    7
 10
183.41344472524284
 20
130.14265730574326
 11
181.77199080183701
 21
133.79034093908362
  0
LINE
  8
_1-0_
  6
CONTINUOUS
 62
    7
 10
181.77199080183701
 20
133.79034093908362
 11
189.06735806851773
 21
137.07326115788641
  0
LINE
  8
_1-0_
  6
CONTINUOUS
 62
    7
 10
189.06735806851773
 20
137.07326115788641
 11
190.70882436391472
 21
133.42557752454604
  0
LINE
  8
_1-0_
  6
CONTINUOUS
 62
    7
 10
190.70882436391472
 20
133.42557752454604
 11
183.41344472524284
 21
130.14265730574326
  0
LINE
  8
_1-0_
  6
CONTINUOUS
 62
    7
 10
238.12876108530406
 20
154.76454038877745
 11
236.48729478990711
 21
158.41222402211784
  0
LINE
  8
_1-0_
  6
CONTINUOUS
 62
    7
 10
236.48729478990711
 20
158.41222402211784
 11
243.78266205658784
 21
161.69514424092063
  0
LINE
  8
_1-0_
  6
CONTINUOUS
 62
    7
 10
243.78266205658784
 20
161.69514424092063
 11
245.42412835198482
 21
158.04746060758023
  0
LINE
  8
_1-0_
  6
CONTINUOUS
 62
    7
 10
245.42412835198482
 20
158.04746060758023
 11
238.12876108530406
 21
154.76454038877745
  0
LINE
  8
_1-0_
  6
CONTINUOUS
 62
    7
 10
292.84404032939193
 20
179.38642347181167
 11
291.20257403399495
 21
183.03410710515203
  0
LINE
  8
_1-0_
  6
CONTINUOUS
 62
    7
 10
291.20257403399495
 20
183.03410710515203
 11
298.49794130067568
 21
186.31702732395482
  0
LINE
  8
_1-0_
  6
CONTINUOUS
 62
    7
 10
298.49794130067568
 20
186.31702732395482
 11
300.13940759607266
 21
182.66934369061445
  0
LINE
  8
_1-0_
  6
CONTINUOUS
 62
    7
 10
300.13940759607266
 20
182.66934369061445
 11
292.84404032939193
 21
179.38642347181167
  0
LINE
  8
_1-0_
  6
CONTINUOUS
 62
    7
 10
134.35209119642104
 20
112.4513780748522
 11
128.698165481155
 21
105.52077422270904
  0
LINE
  8
_1-0_
  6
CONTINUOUS
 62
    7
 10
189.06735806851773
 20
137.07324878589529
 11
183.41345709723396
 21
130.14266967773437
  0
LINE
  8
_1-0_
  6
CONTINUOUS
 62
    7
 10
243.78266205658784
 20
161.69514424092063
 11
238.1287363413218
 21
154.76456513275971
  0
LINE
  8
_1-0_
  6
CONTINUOUS
 62
    7
 10
298.49794130067568
 20
186.31702732395482
 11
292.84401558540964
 21
179.38646058778505
  0
LINE
  8
_1-0_
  6
CONTINUOUS
 62
    7
 10
114.55575479043497
 20
117.94090477195947
 11
115.41013975401184
 21
117.08653218037374
  0
LINE
  8
_1-0_
  6
CONTINUOUS
 62
    7
 10
113.16725859770904
 20
121.02646698822846
 11
116.58051774308488
 21
117.61320784285263
  0
LINE
  8
_1-0_
  6
CONTINUOUS
 62
    7
 10
111.77877477697425
 20
124.11199208852408
 11
117.75089573215794
 21
118.13987113334038
  0
LINE
  8
_1-0_
  6
CONTINUOUS
 62
    7
 10
112.39348952834671
 20
125.19431861671242
 11
118.921273721231
 21
118.66653442382812
  0
LINE
  8
_1-0_
  6
CONTINUOUS
 62
    7
 10
113.97726522909629
 20
125.30760893950593
 11
120.0916640822952
 21
119.19321008630702
  0
LINE
  8
_1-0_
  6
CONTINUOUS
 62
    7
 10
115.56101618586361
 20
125.42089926229941
 11
121.26202969937712
 21
119.7198857487859
  0
LINE
  8
_1-0_
  6
CONTINUOUS
 62
    7
 10
117.14479188661318
 20
125.53418958509292
 11
122.4324200604413
 21
120.24656141126479
  0
LINE
  8
_1-0_
  6
CONTINUOUS
 62
    7
 10
118.7285428433805
 20
125.64747990788641
 11
123.60279804951436
 21
120.77322470175254
  0
LINE
  8
_1-0_
  6
CONTINUOUS
 62
    7
 10
120.31230617213895
 20
125.76077023067991
 11
124.77317603858742
 21
121.29990036423142
  0
LINE
  8
_1-0_
  6
CONTINUOUS
 62
    7
 10
121.89606950089738
 20
125.8740605534734
 11
125.94355402766048
 21
121.82657602671031
  0
LINE
  8
_1-0_
  6
CONTINUOUS
 62
    7
 10
123.4798204576647
 20
125.9873508762669
 11
127.11393201673354
 21
122.35323931719806
  0
LINE
  8
_1-0_
  6
CONTINUOUS
 62
    7
 10
125.06359615841428
 20
126.10064119906039
 11
128.28432237779774
 21
122.87991497967695
  0
LINE
  8
_1-0_
  6
CONTINUOUS
 62
    7
 10
126.64735948717272
 20
126.21391914986276
 11
129.45468799487966
 21
123.40659064215583
  0
LINE
  8
_1-0_
  6
CONTINUOUS
 62
    7
 10
128.23111044394005
 20
126.32720947265625
 11
130.62506598395271
 21
123.93325393264359
  0
LINE
  8
_1-0_
  6
CONTINUOUS
 62
    7
 10
129.81488614468961
 20
126.44049979544975
 11
131.00507169156461
 21
125.25031424857475
  0
LINE
  8
_1-0_
  6
CONTINUOUS
 62
    7
 10
128.24544958166175
 20
99.395488017314193
 11
130.45862558725719
 21
101.60867639490077
  0
LINE
  8
_1-0_
  6
CONTINUOUS
 62
    7
 10
126.30188400680954
 20
99.148976094013946
 11
129.93196229676943
 21
102.77905438397383
  0
LINE
  8
_1-0_
  6
CONTINUOUS
 62
    7
 10
125.77520834433066
 20
100.31936645507812
 11
129.40528663429055
 21
103.94944474503801
  0
LINE
  8
_1-0_
  6
CONTINUOUS
 62
    7
 10
125.24853268185178
 20
101.48975063014676
 11
128.08173102301521
 21
104.32294278531462
  0
LINE
  8
_1-0_
  6
CONTINUOUS
 62
    7
 10
124.72185701937289
 20
102.66013480521538
 11
128.35193530933279
 21
106.29020072318413
  0
LINE
  8
_1-0_
  6
CONTINUOUS
 62
    7
 10
124.19519372888514
 20
103.83051279428844
 11
127.82525964685389
 21
107.46059108424832
  0
LINE
  8
_1-0_
  6
CONTINUOUS
 62
    7
 10
123.66851806640625
 20
105.0008907833615
 11
127.29859635636613
 21
108.63096907332138
  0
LINE
  8
_1-0_
  6
CONTINUOUS
 62
    7
 10
123.14184240392737
 20
106.17128114442568
 11
126.77192069388725
 21
109.80134706239443
  0
LINE
  8
_1-0_
  6
CONTINUOUS
 62
    7
 10
122.61517911343962
 20
107.34165913349874
 11
126.24524503140837
 21
110.97172505146749
  0
LINE
  8
_1-0_
  6
CONTINUOUS
 62
    7
 10
122.08850345096073
 20
108.51204949456293
 11
125.71856936892948
 21
112.14211541253168
  0
LINE
  8
_1-0_
  6
CONTINUOUS
 62
    7
 10
121.56182778848185
 20
109.68242748363599
 11
125.1918937064506
 21
113.31249340160474
  0
LINE
  8
_1-0_
  6
CONTINUOUS
 62
    7
 10
121.03515212600296
 20
110.85281784470017
 11
124.66523041596284
 21
114.48288376266892
  0
LINE
  8
_1-0_
  6
CONTINUOUS
 62
    7
 10
120.50848883551521
 20
112.02319583377323
 11
124.13855475348396
 21
115.65326175174198
  0
LINE
  8
_1-0_
  6
CONTINUOUS
 62
    7
 10
119.98181317303633
 20
113.19357382284629
 11
123.61187909100508
 21
116.82363974081504
  0
LINE
  8
_1-0_
  6
CONTINUOUS
 62
    7
 10
119.45513751055744
 20
114.36396418391048
 11
123.08520342852619
 21
117.99403010187923
  0
LINE
  8
_1-0_
  6
CONTINUOUS
 62
    7
 10
118.92847422006969
 20
115.53435454497468
 11
122.55854013803844
 21
119.16442046294343
  0
LINE
  8
_1-0_
  6
CONTINUOUS
 62
    7
 10
118.40179855759079
 20
116.70473253404772
 11
121.5436904494827
 21
119.84663679793076
  0
LINE
  8
_1-0_
  6
CONTINUOUS
 62
    7
 10
117.87512289511191
 20
117.87512289511191
 11
118.45814060520482
 21
118.45812823321369
  0
LINE
  8
_1-0_
  6
CONTINUOUS
 62
    7
 10
129.95664441907729
 20
127.58017050253379
 11
365.99405649546031
 21
233.79700531830659
  0
LINE
  8
_1-0_
  6
DASHED1
 62
    3
 10
130.20287178658151
 20
127.03301919473185
 11
366.24025911898229
 21
233.24986638249578
  0
LINE
  8
_1-0_
  6
CONTINUOUS
 62
    7
 10
129.71042942356419
 20
128.12732181033573
 11
365.74782912795609
 21
234.34416899809966
  0
LINE
  8
_1-0_
  6
CONTINUOUS
 62
    7
 10
129.71042942356419
 20
128.12732181033573
 11
129.95664441907729
 21
127.58017050253379
  0
LINE
  8
_1-0_
  6
DASHED1
 62
    3
 10
130.20287178658151
 20
127.03301919473185
 11
110.25919733820736
 21
125.6064172693201
  0
LINE
  8
_1-1_
  6
CONTINUOUS
 62
    7
 10
364.98613512193839
 20
234.0014153557855
 11
360.60889991554058
 21
232.03167064769849
  0
LINE
  8
ADD_LINE
  6
DOT
 62
    4
 10
110.46250626847551
 20
125.97405098580026
 11
112.26865613782729
 21
126.78681657120988
  0
LINE
  8
_0-1_
  6
CONTINUOUS
 62
    7
 10
114.32432432432434
 20
122.43243243243244
 11
102.0047595049884
 21
88.584712260478256
  0
LINE
  8
_0-1_
  6
CONTINUOUS
 62
    7
 10
102.0047595049884
 20
88.584712260478256
 11
99.348808494774076
 21
88.584712260478256
  0
LINE
  8
_0-1_
  6
CONTINUOUS
 62
    7
 10
124.86486486486487
 20
107.83783783783784
 11
110.27088886982686
 21
67.741222897091433
  0
LINE
  8
_0-1_
  6
CONTINUOUS
 62
    7
 10
110.27088886982686
 20
67.741222897091433
 11
106.21621621621622
 21
67.741222897091433
  0
LINE
  8
_1-2_
  6
CONTINUOUS
 62
    3
 10
115.71055644267315
 20
125.68653828388936
 11
110.62697951858108
 21
125.32290072054477
  0
LINE
  8
_1-2_
  6
CONTINUOUS
 62
    3
 10
110.62697951858108
 20
125.32290072054477
 11
108.98396672429266
 21
123.22735760663008
  0
LINE
  8
_1-2_
  6
CONTINUOUS
 62
    3
 10
108.98396672429266
 20
123.22735760663008
 11
109.92425042229731
 21
123.87830992002746
  0
LINE
  8
_1-4_
  6
CONTINUOUS
 62
    7
 10
109.60658717799832
 20
123.83962270375845
 11
102.00730813516154
 21
102.9607680037215
  0
LINE
  8
_1-4_
  6
CONTINUOUS
 62
    7
 10
102.00730813516154
 20
102.9607680037215
 11
99.671816439241979
 21
102.9607680037215
  0
LINE
  8
_0-0_
  6
CONTINUOUS
 62
    5
 10
5.9400998336106454
 20
293.08350914369601
 11
411.09012424767315
 21
293.08350914369601
  0
LINE
  8
_0-0_
  6
CONTINUOUS
 62
    5
 10
5.9400998336106454
 20
8.383527454242909
 11
411.09012424767315
 21
8.383527454242909
  0
LINE
  8
_0-0_
  6
CONTINUOUS
 62
    7
 10
411.09012424767315
 20
25.173528369770253
 11
411.09012424767315
 21
10.573505100116932
  0
LINE
  8
_0-0_
  6
CONTINUOUS
 62
    7
 10
5.9400998336106454
 20
14.327831443653309
 11
5.9400998336106454
 21
10.573505100116932
  0
LINE
  8
_0-0_
  6
CONTINUOUS
 62
    7
 10
5.9400998336106454
 20
25.173528369770253
 11
5.9400998336106454
 21
19.350435909137929
  0
LINE
  8
_0-0_
  6
CONTINUOUS
 62
    7
 10
5.9400998336106454
 20
19.350435909137929
 11
5.9400998336106454
 21
18.993301090107167
  0
LINE
  8
_0-0_
  6
CONTINUOUS
 62
    7
 10
5.9400998336106454
 20
19.350435909137929
 11
5.9400998336106454
 21
14.327831443653309
  0
LINE
  8
_0-0_
  6
CONTINUOUS
 62
    7
 10
5.9400998336106454
 20
10.573505100116932
 11
411.09012424767315
 21
10.573505100116932
  0
LINE
  8
_0-0_
  6
CONTINUOUS
 62
    7
 10
406.1341305953294
 20
21.027890857563222
 11
398.35132419884502
 21
13.245039638385975
  0
LINE
  8
_0-0_
  6
CONTINUOUS
 62
    7
 10
411.09012424767315
 20
10.573505100116932
 11
411.09012424767315
 21
25.173528369770253
  0
LINE
  8
_0-0_
  6
CONTINUOUS
 62
    7
 10
288.45007908165752
 20
25.173528369770253
 11
288.45007908165752
 21
18.513324436054432
  0
LINE
  8
_0-0_
  6
CONTINUOUS
 62
    7
 10
288.45007908165752
 20
18.513324436054432
 11
288.45007908165752
 21
10.573505100116932
  0
LINE
  8
_0-0_
  6
CONTINUOUS
 62
    7
 10
211.80008518517315
 20
17.873527225361073
 11
287.20709812462627
 21
17.873527225361073
  0
LINE
  8
_0-0_
  6
CONTINUOUS
 62
    7
 10
305.24005710900127
 20
25.173528369770253
 11
305.24005710900127
 21
19.350435909137929
  0
LINE
  8
_0-0_
  6
CONTINUOUS
 62
    7
 10
305.24005710900127
 20
19.350435909137929
 11
305.24005710900127
 21
10.573505100116932
  0
LINE
  8
_0-0_
  6
CONTINUOUS
 62
    7
 10
211.80008518517315
 20
17.873527225361073
 11
288.45007908165752
 21
17.873527225361073
  0
LINE
  8
_0-0_
  6
CONTINUOUS
 62
    7
 10
392.84009373009502
 20
25.173528369770253
 11
392.84009373009502
 21
10.573505100116932
  0
LINE
  8
ADD_LINE
  6
DOT
 62
    7
 10
17.018442271354786
 20
22.330720599994862
 11
4.0299762469559823
 21
22.330720599994862
  0
LINE
  8
ADD_LINE
  6
DOT
 62
    7
 10
17.018442271354786
 20
22.330720599994862
 11
47.260263560417286
 21
22.330720599994862
  0
LINE
  8
ADD_LINE
  6
DOT
 62
    7
 10
47.260263560417286
 20
22.330720599994862
 11
125.52866947472393
 21
22.330720599994862
  0
LINE
  8
ADD_LINE
  6
DOT
 62
    7
 10
203.56305515587627
 20
22.330720599994862
 11
327.21036350548565
 21
22.330720599994862
  0
LINE
  8
_0-0_
  6
CONTINUOUS
 62
    7
 10
261.44006931603252
 20
17.873527225361073
 11
261.44006931603252
 21
10.573505100116932
  0
LINE
  8
ADD_LINE
  6
DOT
 62
    7
 10
212.97090732872783
 20
15.077792343006337
 11
271.41559421837627
 21
15.077792343006337
  0
LINE
  8
ADD_LINE
  6
DOT
 62
    7
 10
327.21036350548565
 20
22.330720599994862
 11
402.2135983687669
 21
22.330720599994862
  0
TEXT
  8
_0-0_
 62
    7
 10
7.7167752963334237
 20
22.090173419819081
 40
2
 41
1
 50
0
  1
特記
  0
TEXT
  8
_0-0_
 62
    7
 10
211.79891025841533
 20
22.076450046405995
 40
2
 41
1
 50
0
  1
図面名
  0
TEXT
  8
_0-0_
 62
    7
 10
212.12714206993877
 20
14.740292724476063
 40
2
 41
1
 50
0
  1
SCALE
  0
TEXT
  8
_0-0_
 62
    7
 10
262.29389011681377
 20
14.65577047716161
 40
2
 41
1
 50
0
  1
DATE
  0
TEXT
  8
_0-0_
 62
    7
 10
289.54117405236065
 20
22.14640301118871
 40
2
 41
1
 50
0
  1
担当
  0
TEXT
  8
_0-0_
 62
    7
 10
393.84198581993877
 20
21.865903552875722
 40
2.5
 41
1
 50
0
  1
NO
  0
LINE
  8
_0-0_
  6
CONTINUOUS
 62
    4
 10
16.481680033805958
 20
21.604752239093983
 11
211.80008518517315
 21
21.604752239093983
  0
LINE
  8
_0-0_
  6
CONTINUOUS
 62
    4
 10
16.481680033805958
 20
17.954751666889393
 11
211.80008518517315
 21
17.954751666889393
  0
LINE
  8
_0-0_
  6
CONTINUOUS
 62
    4
 10
16.481680033805958
 20
14.304773982868397
 11
211.80008518517315
 21
14.304773982868397
  0
LINE
  8
ADD_LINE
  6
DOT
 62
    4
 10
85.731645790616568
 20
143.00484223919148
 11
104.46054880470963
 21
101.38496713985111
  0
LINE
  8
ADD_LINE
  6
DOT
 62
    4
 10
138.6231124846924
 20
166.8059504266156
 11
157.35201549878548
 21
125.18607532727523
  0
LINE
  8
_1-1_
  6
CONTINUOUS
 62
    7
 10
147.21929586934039
 20
136.0063114808199
 11
145.98819614779262
 21
138.74208039182074
  0
LINE
  8
_1-1_
  6
CONTINUOUS
 62
    7
 10
145.98819614779262
 20
138.74208039182074
 11
150.36543135419043
 21
140.71183747189886
  0
LINE
  8
_1-1_
  6
CONTINUOUS
 62
    7
 10
150.36543135419043
 20
140.71183747189886
 11
151.59653107573814
 21
137.97606856089803
  0
LINE
  8
_1-1_
  6
CONTINUOUS
 62
    7
 10
151.59653107573814
 20
137.97606856089803
 11
147.21929586934039
 21
136.0063114808199
  0
LINE
  8
_1-1_
  6
CONTINUOUS
 62
    7
 10
147.21929586934039
 20
136.0063114808199
 11
150.36543135419043
 21
140.71183747189886
  0
LINE
  8
ADD_LINE
  6
DOT
 62
    4
 10
181.84820767950609
 20
186.25720091082084
 11
200.57711069359914
 21
144.63732581148045
  0
LINE
  8
ADD_LINE
  6
DOT
 62
    4
 10
225.07330287431978
 20
205.70845139502606
 11
243.80220588841286
 21
164.08857629568567
  0
LINE
  8
ADD_LINE
  6
DOT
 62
    4
 10
268.2983980691335
 20
225.15970187923128
 11
287.02730108322652
 21
183.53982677989092
  0
LINE
  8
ADD_LINE
  6
DOT
 62
    4
 10
311.52349326394716
 20
244.6109523634365
 11
330.25239627804024
 21
202.99107726409613
  0
LINE
  8
_1-1_
  6
CONTINUOUS
 62
    7
 10
190.44437420536988
 20
155.45759942906716
 11
189.21327448382218
 21
158.19336834006799
  0
LINE
  8
_1-1_
  6
CONTINUOUS
 62
    7
 10
189.21327448382218
 20
158.19336834006799
 11
193.59052206221111
 21
160.16312542014612
  0
LINE
  8
_1-1_
  6
CONTINUOUS
 62
    7
 10
193.59052206221111
 20
160.16312542014612
 11
194.8216094117677
 21
157.42735650914528
  0
LINE
  8
_1-1_
  6
CONTINUOUS
 62
    7
 10
194.8216094117677
 20
157.42735650914528
 11
190.44437420536988
 21
155.45759942906716
  0
LINE
  8
_1-1_
  6
CONTINUOUS
 62
    7
 10
190.44437420536988
 20
155.45759942906716
 11
193.59052206221111
 21
160.16312542014612
  0
LINE
  8
_1-1_
  6
CONTINUOUS
 62
    7
 10
233.6694542290229
 20
174.90888362701602
 11
232.43836687946629
 21
177.64465253801689
  0
LINE
  8
_1-1_
  6
CONTINUOUS
 62
    7
 10
232.43836687946629
 20
177.64465253801689
 11
236.8156020858641
 21
179.61440961809501
  0
LINE
  8
_1-1_
  6
CONTINUOUS
 62
    7
 10
236.8156020858641
 20
179.61440961809501
 11
238.04668943542072
 21
176.87864070709415
  0
LINE
  8
_1-1_
  6
CONTINUOUS
 62
    7
 10
238.04668943542072
 20
176.87864070709415
 11
233.6694542290229
 21
174.90888362701602
  0
LINE
  8
_1-1_
  6
CONTINUOUS
 62
    7
 10
233.6694542290229
 20
174.90888362701602
 11
236.8156020858641
 21
179.61440961809501
  0
LINE
  8
_1-1_
  6
CONTINUOUS
 62
    7
 10
276.89453012015605
 20
194.36018938039811
 11
275.66344277059949
 21
197.09595829139897
  0
LINE
  8
_1-1_
  6
CONTINUOUS
 62
    7
 10
275.66344277059949
 20
197.09595829139897
 11
280.0406779769973
 21
199.06570299948595
  0
LINE
  8
_1-1_
  6
CONTINUOUS
 62
    7
 10
280.0406779769973
 20
199.06570299948595
 11
281.27176532655386
 21
196.32993408848512
  0
LINE
  8
_1-1_
  6
CONTINUOUS
 62
    7
 10
281.27176532655386
 20
196.32993408848512
 11
276.89453012015605
 21
194.36018938039811
  0
LINE
  8
_1-1_
  6
CONTINUOUS
 62
    7
 10
276.89453012015605
 20
194.36018938039811
 11
280.0406779769973
 21
199.06570299948595
  0
LINE
  8
_1-1_
  6
CONTINUOUS
 62
    7
 10
320.11960827847452
 20
213.81147772356417
 11
318.88852092891796
 21
216.547246634565
  0
LINE
  8
_1-1_
  6
CONTINUOUS
 62
    7
 10
318.88852092891796
 20
216.547246634565
 11
323.26575613531577
 21
218.51699134265198
  0
LINE
  8
_1-1_
  6
CONTINUOUS
 62
    7
 10
323.26575613531577
 20
218.51699134265198
 11
324.49684348487233
 21
215.78122243165114
  0
LINE
  8
_1-1_
  6
CONTINUOUS
 62
    7
 10
324.49684348487233
 20
215.78122243165114
 11
320.11960827847452
 21
213.81147772356417
  0
LINE
  8
_1-1_
  6
CONTINUOUS
 62
    7
 10
320.11960827847452
 20
213.81147772356417
 11
323.26575613531577
 21
218.51699134265198
  0
LINE
  8
ADD_LINE
  6
DOT
 62
    4
 10
150.36543135419043
 20
140.71183747189886
 11
104.43401319486934
 21
123.75442897444913
  0
ARC
  8
_1-3_
  6
CONTINUOUS
 62
    7
 10
97.128438485871669
 20
120.76473745594521
 40
0.2
 50
290.26362886999999
 51
315.67110770792385
  0
LINE
  8
_1-3_
  6
CONTINUOUS
 62
    7
 10
152.38085726187805
 20
141.58975348093705
 11
98.53340186829135
 21
121.70982522061141
  0
LINE
  8
_1-3_
  6
CONTINUOUS
 62
    7
 10
143.37227082256362
 20
142.31457784959485
 11
144.14294033810972
 21
141.95951659036217
  0
LINE
  8
_1-3_
  6
CONTINUOUS
 62
    7
 10
151.06476445021886
 20
145.15456760106997
 11
149.93903367544004
 21
144.73895934475655
  0
LINE
  8
_1-3_
  6
CONTINUOUS
 62
    7
 10
143.37227082256362
 20
142.31457784959485
 11
142.43416184358128
 21
141.96823763600037
  0
LINE
  8
_1-3_
  6
CONTINUOUS
 62
    7
 10
149.93903367544004
 20
144.73895934475655
 11
150.14683780359675
 21
144.17609395736713
  0
LINE
  8
_1-3_
  6
CONTINUOUS
 62
    7
 10
142.43416184358128
 20
141.96823763600037
 11
142.64196597173799
 21
141.40537224861095
  0
LINE
  8
_1-3_
  6
CONTINUOUS
 62
    7
 10
142.64196597173799
 20
141.40537224861095
 11
98.738465755364189
 21
125.19665025238726
  0
LINE
  8
_1-3_
  6
CONTINUOUS
 62
    7
 10
150.14683780359675
 20
144.17609395736713
 11
144.14294033810972
 21
141.95951659036217
  0
LINE
  8
_1-3_
  6
CONTINUOUS
 62
    7
 10
151.06476445021886
 20
145.15456760106997
 11
153.07353768906711
 21
139.71353552297234
  0
LINE
  8
_1-3_
  6
CONTINUOUS
 62
    7
 10
151.21324414937942
 20
139.36950202241965
 11
150.31701750811689
 21
140.82780501102908
  0
LINE
  8
_1-3_
  6
CONTINUOUS
 62
    7
 10
151.69256768775688
 20
139.20369556201149
 11
153.07353768906711
 21
139.71353552297234
  0
ARC
  8
_1-3_
  6
CONTINUOUS
 62
    7
 10
151.55403160231907
 20
139.57893915360441
 40
0.4
 50
211.57356134402039
 51
290.26362887000005
  0
LINE
  8
_1-3_
  6
CONTINUOUS
 62
    7
 10
97.155636210290425
 20
120.56158373011448
 11
95.364013672111639
 21
119.9001350642817
  0
ARC
  8
_1-3_
  6
CONTINUOUS
 62
    7
 10
104.12026057403065
 20
113.93481737886583
 40
9.5741180866490403
 50
125.69975121303688
 51
135.4108704542397
  0
ARC
  8
_1-3_
  6
CONTINUOUS
 62
    7
 10
97.017100124852618
 20
120.93682732170741
 40
0.4
 50
290.26362886999999
 51
315.41087045423996
  0
ARC
  8
_1-3_
  6
CONTINUOUS
 62
    7
 10
94.740028399688526
 20
122.74521671560417
 40
0.4
 50
123.38688631630669
 51
200.26362886999999
  0
LINE
  8
ADD_LINE
  6
DOT
 62
    4
 10
193.59051708940933
 20
160.16312318239022
 11
135.02375408705956
 21
139.99217471712427
  0
ARC
  8
_1-3_
  6
CONTINUOUS
 62
    7
 10
139.97381557488694
 20
141.27396441237192
 40
0.2
 50
289.00419339999996
 51
314.41167223792388
  0
LINE
  8
_1-3_
  6
CONTINUOUS
 62
    7
 10
195.67061050160169
 20
160.87952760070786
 11
141.39921212841091
 21
142.18794343514213
  0
LINE
  8
_1-3_
  6
CONTINUOUS
 62
    7
 10
186.68013164290284
 20
161.80218132301599
 11
187.44281090288985
 21
161.43026688878993
  0
LINE
  8
_1-3_
  6
CONTINUOUS
 62
    7
 10
194.43318855335866
 20
164.4724076323825
 11
193.29859485914562
 21
164.08164280662157
  0
LINE
  8
_1-3_
  6
CONTINUOUS
 62
    7
 10
186.68013164290284
 20
161.80218132301599
 11
185.7346368977253
 21
161.4765439682152
  0
LINE
  8
_1-3_
  6
CONTINUOUS
 62
    7
 10
193.29859485914562
 20
164.08164280662157
 11
193.49397727202609
 21
163.51434595951503
  0
LINE
  8
_1-3_
  6
CONTINUOUS
 62
    7
 10
185.7346368977253
 20
161.4765439682152
 11
185.93001931060579
 21
160.90924712110865
  0
LINE
  8
_1-3_
  6
CONTINUOUS
 62
    7
 10
185.93001931060579
 20
160.90924712110865
 11
141.68086523629694
 21
145.66941891643137
  0
LINE
  8
_1-3_
  6
CONTINUOUS
 62
    7
 10
193.49397727202609
 20
163.51434595951503
 11
187.44281090288985
 21
161.43026688878993
  0
LINE
  8
_1-3_
  6
CONTINUOUS
 62
    7
 10
194.43318855335866
 20
164.4724076323825
 11
196.32188521120329
 21
158.98853811035278
  0
LINE
  8
_1-3_
  6
CONTINUOUS
 62
    7
 10
194.45447938615868
 20
158.68547609046965
 11
193.59052206221111
 21
160.16312542014612
  0
LINE
  8
_1-3_
  6
CONTINUOUS
 62
    7
 10
194.9300427827223
 20
158.509174381446
 11
196.32188521120329
 21
158.98853811035278
  0
ARC
  8
_1-3_
  6
CONTINUOUS
 62
    7
 10
194.79978784080197
 20
158.88737227951702
 40
0.4
 50
210.31412587402039
 51
289.00419340000002
  0
LINE
  8
_1-3_
  6
CONTINUOUS
 62
    7
 10
139.99654150639711
 20
141.07026197112623
 11
138.19081345865226
 21
140.44835211075272
  0
ARC
  8
_1-3_
  6
CONTINUOUS
 62
    7
 10
146.8138301830395
 20
134.29201736788499
 40
9.5741180866490403
 50
124.44031574303685
 51
134.1514349842397
  0
ARC
  8
_1-3_
  6
CONTINUOUS
 62
    7
 10
139.86628656447681
 20
141.44845986919722
 40
0.4
 50
289.00419339999996
 51
314.15143498423993
  0
ARC
  8
_1-3_
  6
CONTINUOUS
 62
    7
 10
148.12164732786493
 20
126.59835313230627
 40
20.129312558890067
 50
108.66112850443659
 51
122.12745084630674
  0
ARC
  8
_1-3_
  6
CONTINUOUS
 62
    7
 10
137.62951247283181
 20
143.30646135047917
 40
0.4
 50
122.12745084630666
 51
199.00419339999999
  0
ARC
  8
_1-3_
  6
CONTINUOUS
 62
    7
 10
183.19889062574811
 20
160.72524637256311
 40
0.2
 50
289.00419339999996
 51
314.41167223792388
  0
LINE
  8
_1-3_
  6
CONTINUOUS
 62
    7
 10
238.89568555246285
 20
180.33080956089901
 11
184.62428717927207
 21
161.63922539533328
  0
LINE
  8
_1-3_
  6
CONTINUOUS
 62
    7
 10
229.905206693764
 20
181.25346328320717
 11
230.66788595375101
 21
180.88154884898108
  0
LINE
  8
_1-3_
  6
CONTINUOUS
 62
    7
 10
237.65826360421983
 20
183.92368959257368
 11
236.52366991000676
 21
183.53292476681273
  0
LINE
  8
_1-3_
  6
CONTINUOUS
 62
    7
 10
229.905206693764
 20
181.25346328320717
 11
228.95971194858646
 21
180.92782592840635
  0
LINE
  8
_1-3_
  6
CONTINUOUS
 62
    7
 10
236.52366991000676
 20
183.53292476681273
 11
236.71905232288725
 21
182.96562791970621
  0
LINE
  8
_1-3_
  6
CONTINUOUS
 62
    7
 10
228.95971194858646
 20
180.92782592840635
 11
229.15509436146692
 21
180.36052908129983
  0
LINE
  8
_1-3_
  6
CONTINUOUS
 62
    7
 10
229.15509436146692
 20
180.36052908129983
 11
184.9059402871581
 21
165.12070087662255
  0
LINE
  8
_1-3_
  6
CONTINUOUS
 62
    7
 10
236.71905232288725
 20
182.96562791970621
 11
230.66788595375101
 21
180.88154884898108
  0
LINE
  8
_1-3_
  6
CONTINUOUS
 62
    7
 10
237.65826360421983
 20
183.92368959257368
 11
239.54696026206443
 21
178.43982007054393
  0
LINE
  8
_1-3_
  6
CONTINUOUS
 62
    7
 10
237.67955443701982
 20
178.1367580506608
 11
236.81559711307227
 21
179.61440738033727
  0
LINE
  8
_1-3_
  6
CONTINUOUS
 62
    7
 10
238.15511783358346
 20
177.96045634163715
 11
239.54696026206443
 21
178.43982007054393
  0
ARC
  8
_1-3_
  6
CONTINUOUS
 62
    7
 10
238.02486289166313
 20
178.33865423970821
 40
0.4
 50
210.31412587402039
 51
289.00419340000002
  0
LINE
  8
_1-3_
  6
CONTINUOUS
 62
    7
 10
183.22161655725824
 20
160.52154393131738
 11
181.41588850951342
 21
159.89963407094388
  0
ARC
  8
_1-3_
  6
CONTINUOUS
 62
    7
 10
190.03890523390064
 20
153.74329932807615
 40
9.5741180866490403
 50
124.44031574303685
 51
134.1514349842397
  0
ARC
  8
_1-3_
  6
CONTINUOUS
 62
    7
 10
183.09136161533795
 20
160.8997418293884
 40
0.4
 50
289.00419339999996
 51
314.15143498423993
  0
ARC
  8
_1-3_
  6
CONTINUOUS
 62
    7
 10
191.34672237872607
 20
146.04963509249745
 40
20.129312558890067
 50
108.66112850443659
 51
122.12745084630674
  0
ARC
  8
_1-3_
  6
CONTINUOUS
 62
    7
 10
180.85458752369294
 20
162.75774331067032
 40
0.4
 50
122.12745084630666
 51
199.00419339999999
  0
ARC
  8
_1-3_
  6
CONTINUOUS
 62
    7
 10
226.42396651686687
 20
180.17653975396161
 40
0.2
 50
289.00419339999996
 51
314.41167223792388
  0
LINE
  8
_1-3_
  6
CONTINUOUS
 62
    7
 10
282.12076144358161
 20
199.78210294229751
 11
227.84936307039084
 21
181.09051877673178
  0
LINE
  8
_1-3_
  6
CONTINUOUS
 62
    7
 10
273.13028258488276
 20
200.70475666460567
 11
273.89296184486977
 21
200.33284223037958
  0
LINE
  8
_1-3_
  6
CONTINUOUS
 62
    7
 10
280.88333949533859
 20
203.37498297397218
 11
279.74874580112555
 21
202.98421814821123
  0
LINE
  8
_1-3_
  6
CONTINUOUS
 62
    7
 10
273.13028258488276
 20
200.70475666460567
 11
272.18478783970522
 21
200.37911930980485
  0
LINE
  8
_1-3_
  6
CONTINUOUS
 62
    7
 10
279.74874580112555
 20
202.98421814821123
 11
279.94412821400601
 21
202.41692130110471
  0
LINE
  8
_1-3_
  6
CONTINUOUS
 62
    7
 10
272.18478783970522
 20
200.37911930980485
 11
272.38017025258569
 21
199.81182246269833
  0
LINE
  8
_1-3_
  6
CONTINUOUS
 62
    7
 10
272.38017025258569
 20
199.81182246269833
 11
228.13101617827687
 21
184.57199425802105
  0
LINE
  8
_1-3_
  6
CONTINUOUS
 62
    7
 10
279.94412821400601
 20
202.41692130110471
 11
273.89296184486977
 21
200.33284223037958
  0
LINE
  8
_1-3_
  6
CONTINUOUS
 62
    7
 10
280.88333949533859
 20
203.37498297397218
 11
282.77203615318319
 21
197.89111345194243
  0
LINE
  8
_1-3_
  6
CONTINUOUS
 62
    7
 10
280.90463032813858
 20
197.5880514320593
 11
280.04067300419104
 21
199.06570076173577
  0
LINE
  8
_1-3_
  6
CONTINUOUS
 62
    7
 10
281.38019372470222
 20
197.41174972303565
 11
282.77203615318319
 21
197.89111345194243
  0
ARC
  8
_1-3_
  6
CONTINUOUS
 62
    7
 10
281.2499387827819
 20
197.78994762110671
 40
0.4
 50
210.31412587402039
 51
289.00419340000002
  0
LINE
  8
_1-3_
  6
CONTINUOUS
 62
    7
 10
226.44669244837701
 20
179.97283731271588
 11
224.64096440063219
 21
179.35092745234238
  0
ARC
  8
_1-3_
  6
CONTINUOUS
 62
    7
 10
233.2639811250194
 20
173.19459270947465
 40
9.5741180866490403
 50
124.44031574303685
 51
134.1514349842397
  0
ARC
  8
_1-3_
  6
CONTINUOUS
 62
    7
 10
226.31643750645671
 20
180.3510352107869
 40
0.4
 50
289.00419339999996
 51
314.15143498423993
  0
ARC
  8
_1-3_
  6
CONTINUOUS
 62
    7
 10
234.57179826984483
 20
165.50092847389595
 40
20.129312558890067
 50
108.66112850443659
 51
122.12745084630674
  0
ARC
  8
_1-3_
  6
CONTINUOUS
 62
    7
 10
224.07966341481171
 20
182.20903669206882
 40
0.4
 50
122.12745084630666
 51
199.00419339999999
  0
ARC
  8
_1-3_
  6
CONTINUOUS
 62
    7
 10
269.6490496479916
 20
199.62783033487781
 40
0.2
 50
289.00419339999996
 51
314.41167223792388
  0
LINE
  8
_1-3_
  6
CONTINUOUS
 62
    7
 10
325.34584457470635
 20
219.23339352321375
 11
271.07444620151557
 21
200.54180935764799
  0
LINE
  8
_1-3_
  6
CONTINUOUS
 62
    7
 10
316.3553657160075
 20
220.15604724552188
 11
317.11804497599451
 21
219.78413281129582
  0
LINE
  8
_1-3_
  6
CONTINUOUS
 62
    7
 10
324.10842262646332
 20
222.82627355488842
 11
322.97382893225029
 21
222.43550872912743
  0
LINE
  8
_1-3_
  6
CONTINUOUS
 62
    7
 10
316.3553657160075
 20
220.15604724552188
 11
315.40987097082996
 21
219.83040989072106
  0
LINE
  8
_1-3_
  6
CONTINUOUS
 62
    7
 10
322.97382893225029
 20
222.43550872912743
 11
323.16921134513075
 21
221.86821188202092
  0
LINE
  8
_1-3_
  6
CONTINUOUS
 62
    7
 10
315.40987097082996
 20
219.83040989072106
 11
315.60525338371042
 21
219.26311304361454
  0
LINE
  8
_1-3_
  6
CONTINUOUS
 62
    7
 10
315.60525338371042
 20
219.26311304361454
 11
271.3560993094016
 21
204.02328483893726
  0
LINE
  8
_1-3_
  6
CONTINUOUS
 62
    7
 10
323.16921134513075
 20
221.86821188202092
 11
317.11804497599451
 21
219.78413281129582
  0
LINE
  8
_1-3_
  6
CONTINUOUS
 62
    7
 10
324.10842262646332
 20
222.82627355488842
 11
325.99711928430793
 21
217.34240403285867
  0
LINE
  8
_1-3_
  6
CONTINUOUS
 62
    7
 10
324.12971345926331
 20
217.03934201297551
 11
323.26575613531577
 21
218.51699134265198
  0
LINE
  8
_1-3_
  6
CONTINUOUS
 62
    7
 10
324.60527685582696
 20
216.86304030395189
 11
325.99711928430793
 21
217.34240403285867
  0
ARC
  8
_1-3_
  6
CONTINUOUS
 62
    7
 10
324.47502191390663
 20
217.24123820202291
 40
0.4
 50
210.31412587402039
 51
289.00419340000002
  0
LINE
  8
_1-3_
  6
CONTINUOUS
 62
    7
 10
269.67177557950174
 20
199.42412789363209
 11
267.86604753175692
 21
198.80221803325861
  0
ARC
  8
_1-3_
  6
CONTINUOUS
 62
    7
 10
276.48906425614416
 20
192.64588329039088
 40
9.5741180866490403
 50
124.44031574303685
 51
134.1514349842397
  0
ARC
  8
_1-3_
  6
CONTINUOUS
 62
    7
 10
269.54152063758147
 20
199.80232579170314
 40
0.4
 50
289.00419339999996
 51
314.15143498423993
  0
ARC
  8
_1-3_
  6
CONTINUOUS
 62
    7
 10
277.7968814009696
 20
184.95221905481216
 40
20.129312558890067
 50
108.66112850443659
 51
122.12745084630674
  0
ARC
  8
_1-3_
  6
CONTINUOUS
 62
    7
 10
267.30474654593644
 20
201.66032727298506
 40
0.4
 50
122.12745084630666
 51
199.00419339999999
  0
ARC
  8
_1-3_
  6
CONTINUOUS
 62
    7
 10
312.29914092173618
 20
218.84082451275316
 40
0.2
 50
289.00419339999996
 51
314.41167223792388
  0
LINE
  8
_1-3_
  6
CONTINUOUS
 62
    7
 10
359.00545698975208
 20
239.36904142339722
 11
359.76813624973909
 21
238.99712698917119
  0
LINE
  8
_1-3_
  6
CONTINUOUS
 62
    7
 10
359.00545698975208
 20
239.36904142339722
 11
358.05996224457454
 21
239.04340406859643
  0
LINE
  8
_1-3_
  6
CONTINUOUS
 62
    7
 10
358.05996224457454
 20
239.04340406859643
 11
358.255344657455
 21
238.47610722148988
  0
LINE
  8
_1-3_
  6
CONTINUOUS
 62
    7
 10
358.255344657455
 20
238.47610722148988
 11
314.00619058314618
 21
223.2362790168126
  0
LINE
  8
_1-3_
  6
CONTINUOUS
 62
    7
 10
312.32186685324632
 20
218.63712207150746
 11
310.5161388055015
 21
218.01521221113398
  0
ARC
  8
_1-3_
  6
CONTINUOUS
 62
    7
 10
319.13915552988874
 20
211.85887746826626
 40
9.5741180866490403
 50
124.44031574303685
 51
134.1514349842397
  0
ARC
  8
_1-3_
  6
CONTINUOUS
 62
    7
 10
312.19161191132605
 20
219.01531996957848
 40
0.4
 50
289.00419339999996
 51
314.15143498423993
  0
ARC
  8
_1-3_
  6
CONTINUOUS
 62
    7
 10
320.44697267471417
 20
204.16521323268751
 40
20.129312558890067
 50
108.66112850443659
 51
122.12745084630674
  0
ARC
  8
_1-3_
  6
CONTINUOUS
 62
    7
 10
309.95483781968102
 20
220.87332145086043
 40
0.4
 50
122.12745084630666
 51
199.00419339999999
  0
LINE
  8
ADD_LINE
  6
DOT
 62
    4
 10
365.74782912795609
 20
234.34416899809966
 11
361.85982604991545
 21
242.98417496696777
  0
LINE
  8
_1-3_
  6
CONTINUOUS
 62
    7
 10
363.13256434705352
 20
240.155867925189
 11
359.76813624973909
 21
238.99712698917119
  0
LINE
  8
_1-3_
  6
CONTINUOUS
 62
    7
 10
364.45120767685444
 20
237.22554971000139
 11
313.72453747526015
 21
219.75480353552337
  0
TEXT
  8
_0-1_
 62
    7
 10
70.582362728785341
 20
87.351913477537437
 40
3
 41
1
 50
0
  1
広小舞　45ｘ90
  0
TEXT
  8
_1-4_
 62
    7
 10
83.510815307820295
 20
102.02745424292846
 40
3
 41
1
 50
0
  1
軒先水切
  0
TEXT
  8
_0-1_
 62
    7
 10
94.692179700499167
 20
66.386855241264556
 40
3
 41
1
 50
0
  1
鼻隠　
  0
LINE
  8
_0-1_
  6
CONTINUOUS
 62
    7
 10
262.18454064289915
 20
104.20558705244906
 11
268.27259952697858
 21
104.20558705244906
  0
LINE
  8
_0-1_
  6
CONTINUOUS
 62
    7
 10
251.99338513191947
 20
132.2055804540538
 11
268.27259952697858
 21
132.2055804540538
  0
LINE
  8
_0-1_
  6
CONTINUOUS
 62
    7
 10
254.54117400966436
 20
125.2055821036526
 11
268.27259952697858
 21
125.2055821036526
  0
LINE
  8
_0-1_
  6
CONTINUOUS
 62
    7
 10
257.08896288740931
 20
118.20558375325143
 11
268.27259952697858
 21
118.20558375325143
  0
LINE
  8
_0-1_
  6
CONTINUOUS
 62
    7
 10
259.63675176515426
 20
111.20558540285023
 11
268.27259952697858
 21
111.20558540285023
  0
TEXT
  8
_0-1_
 62
    7
 10
274.75908188946801
 20
130.31719395964925
 40
3
 41
1
 50
0
  1
瓦桟
  0
TEXT
  8
_0-1_
 62
    7
 10
274.75908601346504
 20
122.81328441045159
 40
3
 41
1
 50
0
  1
流し桟
  0
TEXT
  8
_0-1_
 62
    7
 10
274.75909013746212
 20
115.53006643906224
 40
3
 41
1
 50
0
  1
下葺き材
  0
TEXT
  8
_0-1_
 62
    7
 10
274.75908601346504
 20
108.90897268906224
 40
3
 41
1
 50
0
  1
野地板
  0
TEXT
  8
_0-1_
 62
    7
 10
274.75908188946801
 20
102.28786656707109
 40
3
 41
1
 50
0
  1
垂木
  0
TEXT
  8
_0-1_
 62
    7
 10
289.14080400464962
 20
108.90897268906224
 40
3
 41
1
 50
0
  1
耐水合板　ｔ＝12
  0
TEXT
  8
_1-4_
 62
    7
 10
289.14080812864665
 20
130.31719395964925
 40
3
 41
1
 50
0
  1
18ｘ24
  0
TEXT
  8
_1-4_
 62
    7
 10
289.14080400464962
 20
115.53006643906224
 40
3
 41
1
 50
0
  1
ゴムアス系ルーフィング
  0
TEXT
  8
_1-4_
 62
    7
 10
289.14080812864665
 20
102.28786656707109
 40
3
 41
1
 50
0
  1
60ｘ60
  0
LINE
  8
_1-9_
  6
CONTINUOUS
 62
    7
 10
262.18454064289915
 20
104.20558705244906
 11
251.99338513191947
 21
132.2055804540538
  0
LINE
  8
_1-9_
  6
CONTINUOUS
 62
    7
 10
251.99338513191947
 20
132.2055804540538
 11
235.65008242510874
 21
177.10847368894258
  0
LINE
  8
_1-a_
  6
CONTINUOUS
 62
    7
 10
76.913667740955617
 20
162.60033497887801
 11
129.80511279017711
 21
186.40149031518914
  0
POINT
  8
_1-a_
 62
    7
 10
76.913667740955617
 20
162.60033497887801
  0
POINT
  8
_1-a_
 62
    7
 10
129.80511279017711
 20
186.40149031518914
  0
LINE
  8
_1-a_
  6
CONTINUOUS
 62
    7
 10
76.913667740955617
 20
162.60033497887801
 11
87.903980329031555
 21
138.17742331294045
  0
LINE
  8
_1-a_
  6
CONTINUOUS
 62
    7
 10
129.80511279017711
 20
186.40149031518914
 11
140.79542537825304
 21
161.97857864925157
  0
TEXT
  8
_1-a_
 62
    7
 10
101.44435512965821
 20
174.18743947714933
 40
2.5
 41
1
 50
24.227749880000005
  1
290
  0
LINE
  8
_1-a_
  6
CONTINUOUS
 62
    7
 10
129.80511279017711
 20
186.40149031518914
 11
173.0301908948295
 21
205.85277960092506
  0
POINT
  8
_1-a_
 62
    7
 10
173.0301908948295
 20
205.85277960092506
  0
LINE
  8
_1-a_
  6
CONTINUOUS
 62
    7
 10
173.0301908948295
 20
205.85277960092506
 11
184.02050348290541
 21
181.4298679349875
  0
TEXT
  8
_1-a_
 62
    7
 10
149.50261670659515
 20
195.81366178817285
 40
2.5
 41
1
 50
24.227749880000005
  1
237
  0
LINE
  8
_1-a_
  6
CONTINUOUS
 62
    7
 10
173.0301908948295
 20
205.85277960092506
 11
216.25526618406107
 21
225.30406761972137
  0
POINT
  8
_1-a_
 62
    7
 10
216.25526618406107
 20
225.30406761972137
  0
LINE
  8
_1-a_
  6
CONTINUOUS
 62
    7
 10
216.25526618406107
 20
225.30406761972137
 11
227.24557877213701
 21
200.8811559537838
  0
TEXT
  8
_1-a_
 62
    7
 10
192.72769340353713
 20
215.26495044043895
 40
2.5
 41
1
 50
24.227749880000079
  1
237
  0
LINE
  8
_1-a_
  6
CONTINUOUS
 62
    7
 10
216.25526618406107
 20
225.30406761972137
 11
259.48034591058268
 21
244.75535763529859
  0
POINT
  8
_1-a_
 62
    7
 10
259.48034591058268
 20
244.75535763529859
  0
LINE
  8
_1-a_
  6
CONTINUOUS
 62
    7
 10
259.48034591058268
 20
244.75535763529859
 11
270.47065849865862
 21
220.33244596936103
  0
TEXT
  8
_1-a_
 62
    7
 10
235.95277091141372
 20
234.71623945762573
 40
2.5
 41
1
 50
24.227749880000079
  1
237
  0
LINE
  8
_1-a_
  6
CONTINUOUS
 62
    7
 10
259.48034591058268
 20
244.75535763529859
 11
302.70542310713461
 21
264.20664651238928
  0
POINT
  8
_1-a_
 62
    7
 10
302.70542310713461
 20
264.20664651238928
  0
LINE
  8
_1-a_
  6
CONTINUOUS
 62
    7
 10
302.70542310713461
 20
264.20664651238928
 11
313.6957356952106
 21
239.78373484645169
  0
TEXT
  8
_1-a_
 62
    7
 10
279.1778493729505
 20
254.16752890395969
 40
2.5
 41
1
 50
24.227749880000104
  1
237
  0
LINE
  8
_1-a_
  6
CONTINUOUS
 62
    7
 10
81.745220962716587
 20
151.86355232609253
 11
96.335939002668113
 21
158.42937684107835
  0
POINT
  8
_1-a_
 62
    7
 10
81.745220962716587
 20
151.86355232609253
  0
POINT
  8
_1-a_
 62
    7
 10
96.335939002668113
 20
158.42937684107835
  0
LINE
  8
_1-a_
  6
CONTINUOUS
 62
    7
 10
81.745220962716587
 20
151.86355232609253
 11
87.589495246894032
 21
138.87627890232864
  0
LINE
  8
_1-a_
  6
CONTINUOUS
 62
    7
 10
96.335939002668113
 20
158.42937684107835
 11
102.18021328684556
 21
145.44210341731446
  0
TEXT
  8
_1-a_
 62
    7
 10
87.695495767097171
 20
155.08946938241272
 40
2.5
 41
1
 50
24.227749880000029
  1
80
  0
LINE
  8
_1-a_
  6
CONTINUOUS
 62
    7
 10
96.335939002668113
 20
158.42937684107835
 11
134.6366613915153
 21
175.66470558321296
  0
POINT
  8
_1-a_
 62
    7
 10
134.6366613915153
 20
175.66470558321296
  0
LINE
  8
_1-a_
  6
CONTINUOUS
 62
    7
 10
134.6366613915153
 20
175.66470558321296
 11
140.48093567569276
 21
162.6774321594491
  0
TEXT
  8
_1-a_
 62
    7
 10
113.57126506118355
 20
166.7335680422614
 40
2.5
 41
1
 50
24.227749880000005
  1
210
  0
TEXT
  8
_1-a_
 62
    7
 10
399.03494176372715
 20
16.420133111480851
 40
3
 41
1
 50
0
  1
8
  0
TEXT
  8
_1-a_
 62
    7
 10
222.24676841979951
 20
19.54367097544025
 40
3
 41
1
 50
0
  1
Ｎｏｖｕｍ　軒先　1
  0
TEXT
  8
_1-a_
 62
    7
 10
222.51450023671032
 20
12.047180101937698
 40
3
 41
1
 50
0
  1
1/5
  0
LINE
  8
ADD_LINE
  6
DOT
 62
    4
 10
309.61251672682226
 20
19.305157385718587
 11
343.37112763264997
 21
19.305157385718587
  0
TEXT
  8
_0-1_
 62
    7
 10
309.00428242440461
 20
19.071829365468091
 40
3
 41
1
 50
0
  1
株式会社
  0
TEXT
  8
_0-1_
 62
    3
 10
326.75029946805955
 20
18.983394372858299
 40
5
 41
1
 50
0
  1
神　清
  0
TEXT
  8
_0-1_
 62
    7
 10
309.11570045254018
 20
12.873049975803156
 40
3
 41
1
 50
0
  1
〒475－0807　半田市八軒町２８番地
  0
ARC
  8
_1-5_
  6
CONTINUOUS
 62
    7
 10
105.59686486752724
 20
106.27175697100333
 40
20.129312558890067
 50
109.92056397443656
 51
123.38688631630674
  0
ARC
  8
_1-3_
  6
CONTINUOUS
 62
    7
 10
91.692234520056743
 20
131.00057573064882
 40
0.4
 50
123.38688631630669
 51
200.26362886999999
  0
ARC
  8
_1-5_
  6
CONTINUOUS
 62
    7
 10
102.54907098789546
 20
114.52711598604799
 40
20.129312558890067
 50
109.92056397443656
 51
123.38688631630674
  0
LINE
  8
_1-5_
  6
CONTINUOUS
 62
    7
 10
135.53421607917795
 20
148.16183714345721
 11
95.464539218951217
 21
133.36852340981304
  0
LINE
  8
_1-3_
  6
CONTINUOUS
 62
    7
 10
91.316990928463795
 20
130.86203964521101
 11
95.364013672111639
 21
119.9001350642817
  0
ARC
  8
_1-3_
  6
CONTINUOUS
 62
    7
 10
145.25603860561796
 20
134.91870688986864
 40
20.129312558890067
 50
108.66112850443659
 51
122.12745084630674
  0
ARC
  8
_1-3_
  6
CONTINUOUS
 62
    7
 10
134.76390375058483
 20
151.62681510804151
 40
0.4
 50
122.12745084630666
 51
199.00419339999999
  0
LINE
  8
_1-5_
  6
CONTINUOUS
 62
    7
 10
178.7181086492696
 20
167.73269328206155
 11
138.58734350661774
 21
153.91127727331227
  0
LINE
  8
_1-3_
  6
CONTINUOUS
 62
    7
 10
134.38570585251381
 20
151.49656016612121
 11
138.19081345865226
 21
140.44835211075272
  0
ARC
  8
_1-3_
  6
CONTINUOUS
 62
    7
 10
188.4811136564791
 20
154.3699888500598
 40
20.129312558890067
 50
108.66112850443659
 51
122.12745084630674
  0
ARC
  8
_1-3_
  6
CONTINUOUS
 62
    7
 10
177.98897880144597
 20
171.07809706823269
 40
0.4
 50
122.12745084630666
 51
199.00419339999999
  0
ARC
  8
_1-3_
  6
CONTINUOUS
 62
    7
 10
231.70618954759786
 20
173.8212822314583
 40
20.129312558890067
 50
108.66112850443659
 51
122.12745084630674
  0
ARC
  8
_1-3_
  6
CONTINUOUS
 62
    7
 10
221.21405469256473
 20
190.52939044963119
 40
0.4
 50
122.12745084630666
 51
199.00419339999999
  0
ARC
  8
_1-3_
  6
CONTINUOUS
 62
    7
 10
274.93127267872262
 20
193.27257281237451
 40
20.129312558890067
 50
108.66112850443659
 51
122.12745084630674
  0
ARC
  8
_1-3_
  6
CONTINUOUS
 62
    7
 10
264.43913782368952
 20
209.98068103054743
 40
0.4
 50
122.12745084630666
 51
199.00419339999999
  0
ARC
  8
_1-3_
  6
CONTINUOUS
 62
    7
 10
317.5813639524672
 20
212.48556699024988
 40
20.129312558890067
 50
108.66112850443659
 51
122.12745084630674
  0
ARC
  8
_1-3_
  6
CONTINUOUS
 62
    7
 10
307.0892290974341
 20
229.19367520842277
 40
0.4
 50
122.12745084630666
 51
199.00419339999999
  0
LINE
  8
_1-5_
  6
CONTINUOUS
 62
    7
 10
360.54355941924484
 20
248.57148665213185
 11
311.14058186089653
 21
231.55663277437407
  0
LINE
  8
_1-3_
  6
CONTINUOUS
 62
    7
 10
306.71103119936305
 20
229.06342026650248
 11
310.5161388055015
 21
218.01521221113398
  0
LINE
  8
_1-5_
  6
CONTINUOUS
 62
    7
 10
307.80596399902731
 20
225.88426040310657
 11
268.49049058715354
 21
212.34363859649923
  0
LINE
  8
_1-3_
  6
CONTINUOUS
 62
    7
 10
264.06093992561847
 20
209.8504260886271
 11
267.86604753175692
 21
198.80221803325861
  0
LINE
  8
_1-5_
  6
CONTINUOUS
 62
    7
 10
265.16826946890575
 20
206.63527202560968
 11
225.0374944485981
 21
192.81385261490209
  0
LINE
  8
_1-3_
  6
CONTINUOUS
 62
    7
 10
220.83585679449371
 20
190.39913550771087
 11
224.64096440063219
 21
179.35092745234238
  0
LINE
  8
_1-5_
  6
CONTINUOUS
 62
    7
 10
221.94318796774505
 20
187.18397671205955
 11
182.0403315649111
 21
173.44105463418487
  0
LINE
  8
_1-3_
  6
CONTINUOUS
 62
    7
 10
177.61078090337494
 20
170.94784212631237
 11
181.41588850951342
 21
159.89963407094388
  0
ENDSEC
  0
EOF
