  0
SECTION
  2
HEADER
  9
$ACADVER
  1
AC1009
  9
$INSBASE
 10
0
 20
0
 30
0
  9
$EXTMIN
 10
0
 20
0
  9
$EXTMAX
 10
420
 20
297
  9
$LIMMIN
 10
0
 20
0
  9
$LIMMAX
 10
420
 20
297
  9
$LTSCALE
 40
1
  0
ENDSEC
  0
SECTION
  2
TABLES
  0
TABLE
  2
LTYPE
 70
     9
  0
LTYPE
  2
CONTINUOUS
 70
    64
  3
実線
 72
    65
 73
     0
 40
0.0
  0
LTYPE
  2
DASHED1
 70
    64
  3
--  --  --  --  --  --  --  --  
 72
    65
 73
     2
 40
2.5
 49
1.25
 49
-1.25
  0
LTYPE
  2
DASHED2
 70
    64
  3
----    ----    ----    ----    
 72
    65
 73
     2
 40
5.0
 49
2.5
 49
-2.5
  0
LTYPE
  2
DASHED3
 70
    64
  3
------  ------  ------  ------  
 72
    65
 73
     2
 40
5.0
 49
3.75
 49
-1.25
  0
LTYPE
  2
CENTER1
 70
    64
  3
----- - ----- - ----- - ----- - 
 72
    65
 73
     4
 40
10.0
 49
6.25
 49
-1.25
 49
1.25
 49
-1.25
  0
LTYPE
  2
CENTER2
 70
    64
  3
----------  --  ----------  --  
 72
    65
 73
     4
 40
20.0
 49
12.5
 49
-2.5
 49
2.5
 49
-2.5
  0
LTYPE
  2
PHANTOM1
 70
    64
  3
--- - - --- - - --- - - --- - - 
 72
    65
 73
     6
 40
10.0
 49
3.25
 49
-1.25
 49
1.25
 49
-1.25
 49
1.25
 49
-1.25
  0
LTYPE
  2
PHANTOM2
 70
    64
  3
--------  -  -  --------  -  -  
 72
    65
 73
     6
 40
20.0
 49
10.0
 49
-2.5
 49
1.25
 49
-2.5
 49
1.25
 49
-2.5
  0
LTYPE
  2
DOT
 70
    64
  3
-   -   -   -   -   -   -   -   
 72
    65
 73
     2
 40
2.5
 49
0.625
 49
-1.875
  0
LTYPE
  2
DUMMY
 70
    64
  3
ダミー
 72
    65
 73
     0
 40
0.0
  0
LTYPE
  2
RAND1
 70
    64
  3
ランダム線1
 72
    65
 73
     4
 40
10.0
 49
1.0
 49
-2.0
 49
3.0
 49
-4.0
  0
LTYPE
  2
RAND2
 70
    64
  3
ランダム線2
 72
    65
 73
     4
 40
14.0
 49
2.0
 49
-3.0
 49
4.0
 49
-5.0
  0
LTYPE
  2
RAND3
 70
    64
  3
ランダム線3
 72
    65
 73
     4
 40
18.0
 49
3.0
 49
-4.0
 49
5.0
 49
-6.0
  0
LTYPE
  2
RAND4
 70
    64
  3
ランダム線4
 72
    65
 73
     4
 40
22.0
 49
4.0
 49
-5.0
 49
6.0
 49
-7.0
  0
LTYPE
  2
RAND5
 70
    64
  3
ランダム線5
 72
    65
 73
     4
 40
26.0
 49
5.0
 49
-6.0
 49
7.0
 49
-8.0
  0
LTYPE
  2
LONG1
 70
    64
  3
----------  --  ----------  --  
 72
    65
 73
     4
 40
40.0
 49
32.5
 49
-2.5
 49
2.5
 49
-2.5
  0
LTYPE
  2
LONG2
 70
    64
  3
--------  -  -  --------  -  -  
 72
    65
 73
     6
 40
40.0
 49
30.0
 49
-2.5
 49
1.25
 49
-2.5
 49
1.25
 49
-2.5
  0
LTYPE
  2
LONG3
 70
    64
  3
+++++++++++++++..+++++++++++++++
 72
    65
 73
     2
 40
40.0
 49
37.5
 49
-2.5
  0
LTYPE
  2
LONG4
 70
    64
  3
+++++++++++++++..+++++++++++++++
 72
    65
 73
     2
 40
80.0
 49
75.0
 49
-5.0
  0
LTYPE
  2
LONG5
 70
    64
  3
----------  --  ----------  --  
 72
    65
 73
     4
 40
60.0
 49
37.5
 49
-7.5
 49
7.5
 49
-7.5
  0
LTYPE
  2
dashed
 70
   64
  3
-------   -------------   ------
 72
   65
 73
    2
 40
7.5
 49
6
 49
-1.5
  0
LTYPE
  2
dashed_spaced
 70
   64
  3
----        --------        ----
 72
   65
 73
    2
 40
12
 49
6
 49
-6
  0
LTYPE
  2
long_dashed_dotted
 70
   64
  3
------------- --- --------------
 72
   65
 73
    4
 40
15.25
 49
12
 49
-1.5
 49
0.25
 49
-1.5
  0
LTYPE
  2
long_dashed_double-dotted
 70
   64
  3
----------- --- --- ------------
 72
   65
 73
    6
 40
17
 49
12
 49
-1.5
 49
0.25
 49
-1.5
 49
0.25
 49
-1.5
  0
LTYPE
  2
long_dashed_triplicate-dotted
 70
   64
  3
--------- --- --- --- ----------
 72
   65
 73
    8
 40
18.75
 49
12
 49
-1.5
 49
0.25
 49
-1.5
 49
0.25
 49
-1.5
 49
0.25
 49
-1.5
  0
LTYPE
  2
dotted
 70
   64
  3
   -       -       -       -    
 72
   65
 73
    2
 40
1.75
 49
0.25
 49
-1.5
  0
LTYPE
  2
chain
 70
   64
  3
-------------- -- --------------
 72
   65
 73
    4
 40
18.5
 49
12
 49
-1.5
 49
3.5
 49
-1.5
  0
LTYPE
  2
chain_double_dash
 70
   64
  3
------------ -- -- -------------
 72
   65
 73
    6
 40
23.5
 49
12
 49
-1.5
 49
3.5
 49
-1.5
 49
3.5
 49
-1.5
  0
LTYPE
  2
dashed_dotted
 70
   64
  3
-----------     -     ----------
 72
   65
 73
    4
 40
9.25
 49
6
 49
-1.5
 49
0.25
 49
-1.5
  0
LTYPE
  2
double-dashed_dotted
 70
   64
  3
------   -----------   -   -----
 72
   65
 73
    6
 40
16.75
 49
6
 49
-1.5
 49
6
 49
-1.5
 49
0.25
 49
-1.5
  0
LTYPE
  2
dashed_double-dotted
 70
   64
  3
---------    -    -    ---------
 72
   65
 73
    6
 40
11
 49
6
 49
-1.5
 49
0.25
 49
-1.5
 49
0.25
 49
-1.5
  0
LTYPE
  2
double-dashed_double-dotted
 70
   64
  3
-----   ---------   -   -   ----
 72
   65
 73
    8
 40
18.5
 49
6
 49
-1.5
 49
6
 49
-1.5
 49
0.25
 49
-1.5
 49
0.25
 49
-1.5
  0
LTYPE
  2
dashed_triplicate-dotted
 70
   64
  3
-------    -    -    -    ------
 72
   65
 73
    8
 40
12.75
 49
6
 49
-1.5
 49
0.25
 49
-1.5
 49
0.25
 49
-1.5
 49
0.25
 49
-1.5
  0
LTYPE
  2
double-dashed_triplicate-dotted
 70
   64
  3
-----  ---------  -  -  -  -----
 72
   65
 73
   10
 40
20.25
 49
6
 49
-1.5
 49
6
 49
-1.5
 49
0.25
 49
-1.5
 49
0.25
 49
-1.5
 49
0.25
 49
-1.5
  0
LTYPE
  2
undefined
 70
   64
  3
--------------------------------
 72
   65
 73
    0
 40
0
  0
ENDTAB
  0
TABLE
  2
STYLE
  5
3
100
AcDbSymbolTable
 70
     1
  0
STYLE
  5
10
100
AcDbSymbolTableRecord
100
AcDbTextStyleTableRecord
  2
STANDARD
 70
     0
 40
0.0
 41
1.0
 50
0.0
 71
     0
 42
0.2
  3
txt
  4
bigfont.shx
  0
STYLE
  5
26
100
AcDbSymbolTableRecord
100
AcDbTextStyleTableRecord
  2
TATEGAKI
 70
    68
 40
0.0
 41
1.0
 50
0.0
 71
     0
 42
1.0
  3
txt
  4
bigfont.shx
  0
ENDTAB
  0
TABLE
  2
LAYER
 70
    4
  0
LAYER
  2
_0-1_
 70
   64
 62
    7
  6
CONTINUOUS
  0
LAYER
  2
_1-0_
 70
   64
 62
    7
  6
CONTINUOUS
  0
LAYER
  2
_1-1_
 70
   64
 62
    7
  6
CONTINUOUS
  0
LAYER
  2
ADD_LINE
 70
   64
 62
    7
  6
CONTINUOUS
  0
ENDTAB
  0
ENDSEC
  0
SECTION
  2
BLOCKS
  0
ENDSEC
  0
SECTION
  2
ENTITIES
  0
LINE
  8
_1-0_
  6
CONTINUOUS
 62
    7
 10
287.15271168860301
 20
148.84928313993947
 11
285.92162433904645
 21
151.58505205094033
  0
LINE
  8
_1-0_
  6
CONTINUOUS
 62
    7
 10
285.92162433904645
 20
151.58505205094033
 11
290.29885954544426
 21
153.55480913101846
  0
LINE
  8
_1-0_
  6
CONTINUOUS
 62
    7
 10
290.29885954544426
 20
153.55480913101846
 11
291.52994689500082
 21
150.8190402200176
  0
LINE
  8
_1-0_
  6
CONTINUOUS
 62
    7
 10
291.52994689500082
 20
150.8190402200176
 11
287.15271168860301
 21
148.84928313993947
  0
LINE
  8
_0-1_
  6
CONTINUOUS
 62
    7
 10
213.43723875492589
 20
25.680406435124397
 11
213.43723875492589
 21
11.080383165471062
  0
LINE
  8
ADD_LINE
  6
DOT
 62
    7
 10
125.83724028080478
 20
22.837598665349006
 11
205.20020872562901
 21
22.837598665349006
  0
LINE
  8
_0-1_
  6
CONTINUOUS
 62
    7
 10
7.5772534033633576
 20
25.680406435124397
 11
412.72727781742583
 21
25.680406435124397
  0
LINE
  8
_0-1_
  6
CONTINUOUS
 62
    5
 10
7.5772534033633576
 20
293.59038720905016
 11
412.72727781742583
 21
293.59038720905016
  0
LINE
  8
_0-1_
  6
CONTINUOUS
 62
    5
 10
7.5772534033633576
 20
8.8904055195970386
 11
412.72727781742583
 21
8.8904055195970386
  0
LINE
  8
_0-1_
  6
CONTINUOUS
 62
    7
 10
412.72727781742583
 20
25.680406435124397
 11
412.72727781742583
 21
11.080383165471062
  0
LINE
  8
_0-1_
  6
CONTINUOUS
 62
    7
 10
7.5772534033633576
 20
14.834709509007439
 11
7.5772534033633576
 21
11.080383165471062
  0
LINE
  8
_0-1_
  6
CONTINUOUS
 62
    7
 10
7.5772534033633576
 20
25.680406435124397
 11
7.5772534033633576
 21
19.857313974492058
  0
LINE
  8
_0-1_
  6
CONTINUOUS
 62
    7
 10
7.5772534033633576
 20
19.857313974492058
 11
7.5772534033633576
 21
19.500179155461296
  0
LINE
  8
_0-1_
  6
CONTINUOUS
 62
    7
 10
7.5772534033633576
 20
19.857313974492058
 11
7.5772534033633576
 21
14.834709509007439
  0
LINE
  8
_0-1_
  6
CONTINUOUS
 62
    7
 10
7.5772534033633576
 20
11.080383165471062
 11
412.72727781742583
 21
11.080383165471062
  0
LINE
  8
_0-1_
  6
CONTINUOUS
 62
    7
 10
407.77128416508208
 20
21.534768922917365
 11
399.9884777685977
 21
13.751917703740105
  0
LINE
  8
_0-1_
  6
CONTINUOUS
 62
    7
 10
412.72727781742583
 20
11.080383165471062
 11
412.72727781742583
 21
25.680406435124397
  0
LINE
  8
_0-1_
  6
CONTINUOUS
 62
    7
 10
290.08723265141026
 20
25.680406435124397
 11
290.08723265141026
 21
19.020202501408562
  0
LINE
  8
_0-1_
  6
CONTINUOUS
 62
    7
 10
290.08723265141026
 20
19.020202501408562
 11
290.08723265141026
 21
11.080383165471062
  0
LINE
  8
_0-1_
  6
CONTINUOUS
 62
    7
 10
213.43723875492589
 20
18.380405290715203
 11
288.84425169437901
 21
18.380405290715203
  0
LINE
  8
_0-1_
  6
CONTINUOUS
 62
    7
 10
306.87721067875401
 20
25.680406435124397
 11
306.87721067875401
 21
19.857313974492058
  0
LINE
  8
_0-1_
  6
CONTINUOUS
 62
    7
 10
306.87721067875401
 20
19.857313974492058
 11
306.87721067875401
 21
11.080383165471062
  0
LINE
  8
_0-1_
  6
CONTINUOUS
 62
    7
 10
213.43723875492589
 20
18.380405290715203
 11
290.08723265141026
 21
18.380405290715203
  0
LINE
  8
_0-1_
  6
CONTINUOUS
 62
    7
 10
394.4772472998477
 20
25.680406435124397
 11
394.4772472998477
 21
11.080383165471062
  0
LINE
  8
ADD_LINE
  6
DOT
 62
    7
 10
18.655595841107498
 20
22.837598665349006
 11
48.897417130169998
 21
22.837598665349006
  0
LINE
  8
ADD_LINE
  6
DOT
 62
    7
 10
48.897417130169998
 20
22.837598665349006
 11
127.16582304447665
 21
22.837598665349006
  0
LINE
  8
ADD_LINE
  6
DOT
 62
    7
 10
205.20020872562901
 20
22.837598665349006
 11
328.84751707523839
 21
22.837598665349006
  0
LINE
  8
_0-1_
  6
CONTINUOUS
 62
    7
 10
263.07722288578526
 20
18.380405290715203
 11
263.07722288578526
 21
11.080383165471062
  0
LINE
  8
ADD_LINE
  6
DOT
 62
    7
 10
214.60806089848057
 20
15.584670408360466
 11
273.05274778812901
 21
15.584670408360466
  0
LINE
  8
ADD_LINE
  6
DOT
 62
    7
 10
328.84751707523839
 20
22.837598665349006
 11
403.85075193851958
 21
22.837598665349006
  0
TEXT
  8
_0-1_
 62
    7
 10
9.3539288660861359
 20
22.597051485173225
 40
2
 41
1
 50
0
  1
特記
  0
TEXT
  8
_0-1_
 62
    7
 10
213.43606382816807
 20
22.583328111760139
 40
2
 41
1
 50
0
  1
図面名
  0
TEXT
  8
_0-1_
 62
    7
 10
213.76429563969151
 20
15.247170789830193
 40
2
 41
1
 50
0
  1
SCALE
  0
TEXT
  8
_0-1_
 62
    7
 10
263.93104368656651
 20
15.16264854251574
 40
2
 41
1
 50
0
  1
DATE
  0
TEXT
  8
_0-1_
 62
    7
 10
291.17832762211339
 20
22.653281076542854
 40
2
 41
1
 50
0
  1
担当
  0
TEXT
  8
_0-1_
 62
    7
 10
395.47913938969145
 20
22.372781618229865
 40
2.5
 41
1
 50
0
  1
NO
  0
LINE
  8
_0-1_
  6
CONTINUOUS
 62
    4
 10
18.11883360355867
 20
22.111630304448127
 11
213.43723875492589
 21
22.111630304448127
  0
LINE
  8
_0-1_
  6
CONTINUOUS
 62
    4
 10
18.11883360355867
 20
18.461629732243523
 11
213.43723875492589
 21
18.461629732243523
  0
LINE
  8
_0-1_
  6
CONTINUOUS
 62
    4
 10
18.11883360355867
 20
14.811652048222527
 11
213.43723875492589
 21
14.811652048222527
  0
LINE
  8
ADD_LINE
  6
DOT
 62
    4
 10
311.249670296575
 20
19.812035451072745
 11
345.00828120240271
 21
19.812035451072745
  0
TEXT
  8
_0-1_
 62
    7
 10
310.64143599415735
 20
19.578707430822249
 40
3
 41
1
 50
0
  1
株式会社
  0
TEXT
  8
_0-1_
 62
    3
 10
328.38745303781229
 20
19.490272438212457
 40
5
 41
1
 50
0
  1
神　清
  0
TEXT
  8
_0-1_
 62
    7
 10
223.82205475621606
 20
12.751538617002723
 40
3
 41
1
 50
0
  1
1/5
  0
TEXT
  8
_1-1_
 62
    7
 10
398.33610648918471
 20
17.817803660565687
 40
3
 41
1
 50
0
  1
17
  0
TEXT
  8
_0-1_
 62
    7
 10
223.13368456897959
 20
20.065471856390189
 40
3
 41
1
 50
0
  1
Ｎｏｖｕｍ　谷
  0
LINE
  8
_1-0_
  6
CONTINUOUS
 62
    7
 10
263.16003095855655
 20
115.9015572768694
 11
261.51858940714186
 21
119.54924091020976
  0
LINE
  8
_1-0_
  6
CONTINUOUS
 62
    7
 10
261.51858940714186
 20
119.54924091020976
 11
268.81395667382264
 21
122.83216112901255
  0
LINE
  8
_1-0_
  6
CONTINUOUS
 62
    7
 10
268.81395667382264
 20
122.83216112901255
 11
270.45542296921957
 21
119.18447749567218
  0
LINE
  8
_1-0_
  6
CONTINUOUS
 62
    7
 10
270.45542296921957
 20
119.18447749567218
 11
263.16003095855655
 21
115.9015572768694
  0
LINE
  8
_1-0_
  6
CONTINUOUS
 62
    7
 10
317.87535969060895
 20
140.52344035990359
 11
316.23389339521196
 21
144.17112399324395
  0
LINE
  8
_1-0_
  6
CONTINUOUS
 62
    7
 10
316.23389339521196
 20
144.17112399324395
 11
323.52926066189275
 21
147.45404421204674
  0
LINE
  8
_1-0_
  6
CONTINUOUS
 62
    7
 10
323.52926066189275
 20
147.45404421204674
 11
325.17072695728967
 21
143.80636057870638
  0
LINE
  8
_1-0_
  6
CONTINUOUS
 62
    7
 10
325.17072695728967
 20
143.80636057870638
 11
317.87535969060895
 21
140.52344035990359
  0
LINE
  8
_1-0_
  6
CONTINUOUS
 62
    7
 10
268.81395667382264
 20
122.83214875702141
 11
263.16005570253884
 21
115.90156964886052
  0
LINE
  8
_1-0_
  6
CONTINUOUS
 62
    7
 10
323.52926066189275
 20
147.45404421204674
 11
317.87533494662665
 21
140.52346510388585
  0
LINE
  8
_1-0_
  6
CONTINUOUS
 62
    7
 10
240.46232654027111
 20
127.83861106038924
 11
236.08511607785556
 21
125.86885398031112
  0
LINE
  8
_1-0_
  6
CONTINUOUS
 62
    7
 10
287.15271168860301
 20
148.84928313993947
 11
290.29885954544426
 21
153.55480913101846
  0
LINE
  8
_1-0_
  6
CONTINUOUS
 62
    7
 10
160.65818340788087
 20
115.9015572768694
 11
162.29962495929558
 21
119.54924091020976
  0
LINE
  8
_1-0_
  6
CONTINUOUS
 62
    7
 10
162.29962495929558
 20
119.54924091020976
 11
155.00425769261483
 21
122.83216112901255
  0
LINE
  8
_1-0_
  6
CONTINUOUS
 62
    7
 10
155.00425769261483
 20
122.83216112901255
 11
153.36279139721785
 21
119.18447749567218
  0
LINE
  8
_1-0_
  6
CONTINUOUS
 62
    7
 10
153.36279139721785
 20
119.18447749567218
 11
160.65818340788087
 21
115.9015572768694
  0
LINE
  8
_1-0_
  6
CONTINUOUS
 62
    7
 10
105.94285467582853
 20
140.52344035990359
 11
107.58432097122547
 21
144.17112399324395
  0
LINE
  8
_1-0_
  6
CONTINUOUS
 62
    7
 10
107.58432097122547
 20
144.17112399324395
 11
100.28895370454474
 21
147.45404421204674
  0
LINE
  8
_1-0_
  6
CONTINUOUS
 62
    7
 10
100.28895370454474
 20
147.45404421204674
 11
98.647487409147772
 21
143.80636057870638
  0
LINE
  8
_1-0_
  6
CONTINUOUS
 62
    7
 10
98.647487409147772
 20
143.80636057870638
 11
105.94285467582853
 21
140.52344035990359
  0
LINE
  8
_1-0_
  6
CONTINUOUS
 62
    7
 10
155.00425769261483
 20
122.83214875702141
 11
160.65815866389863
 21
115.90156964886052
  0
LINE
  8
_1-0_
  6
CONTINUOUS
 62
    7
 10
100.28895370454474
 20
147.45404421204674
 11
105.94287941981078
 21
140.52346510388585
  0
LINE
  8
_1-0_
  6
CONTINUOUS
 62
    7
 10
136.66550267783441
 20
148.84928313993947
 11
137.89659002739103
 21
151.58505205094033
  0
LINE
  8
_1-0_
  6
CONTINUOUS
 62
    7
 10
137.89659002739103
 20
151.58505205094033
 11
133.51935482099321
 21
153.55480913101846
  0
LINE
  8
_1-0_
  6
CONTINUOUS
 62
    7
 10
133.51935482099321
 20
153.55480913101846
 11
132.2882674714366
 21
150.8190402200176
  0
LINE
  8
_1-0_
  6
CONTINUOUS
 62
    7
 10
132.2882674714366
 20
150.8190402200176
 11
136.66550267783441
 21
148.84928313993947
  0
LINE
  8
_1-0_
  6
CONTINUOUS
 62
    7
 10
136.66550267783441
 20
148.84928313993947
 11
133.51935482099321
 21
153.55480913101846
  0
LINE
  8
ADD_LINE
  6
DOT
 62
    4
 10
184.68726253583696
 20
136.53265666849734
 11
184.28358920919001
 21
136.68760348543145
  0
LINE
  8
ADD_LINE
  6
DOT
 62
    4
 10
184.53916980198986
 20
136.58950596774775
 11
133.51935482099321
 21
153.55480913101846
  0
LINE
  8
_1-0_
  6
CONTINUOUS
 62
    7
 10
239.26674680526264
 20
127.30060265403367
 11
236.03731070412246
 21
134.47716168987614
  0
LINE
  8
_1-0_
  6
CONTINUOUS
 62
    7
 10
236.03731070412246
 20
134.47716168987614
 11
244.7858425611748
 21
136.9676187607165
  0
LINE
  8
_1-0_
  6
CONTINUOUS
 62
    7
 10
244.7858425611748
 20
136.9676187607165
 11
247.47402879428293
 21
130.99387707469455
  0
LINE
  8
_1-0_
  6
CONTINUOUS
 62
    7
 10
236.0372859601402
 20
134.47716168987614
 11
247.47402879428293
 21
130.99387707469455
  0
LINE
  8
_1-0_
  6
CONTINUOUS
 62
    7
 10
183.35588782616637
 20
127.83861106038924
 11
187.73309828858191
 21
125.86885398031112
  0
LINE
  8
ADD_LINE
  6
DOT
 62
    4
 10
184.68726253583696
 20
136.53265666849734
 11
184.28358920919001
 21
136.68760348543145
  0
LINE
  8
_1-0_
  6
CONTINUOUS
 62
    7
 10
184.5514675611748
 20
127.30060265403367
 11
187.78090366231501
 21
134.47716168987614
  0
LINE
  8
_1-0_
  6
CONTINUOUS
 62
    7
 10
187.78090366231501
 20
134.47716168987614
 11
179.03237180526264
 21
136.9676187607165
  0
LINE
  8
_1-0_
  6
CONTINUOUS
 62
    7
 10
179.03237180526264
 20
136.9676187607165
 11
176.34418557215454
 21
130.99387707469455
  0
LINE
  8
_1-0_
  6
CONTINUOUS
 62
    7
 10
187.78092840629728
 20
134.47716168987614
 11
176.34418557215454
 21
130.99387707469455
  0
LINE
  8
_1-0_
  6
CONTINUOUS
 62
    2
 10
179.28348610926392
 20
137.15796184427859
 11
181.56938467873181
 21
137.5161557315252
  0
LINE
  8
_1-0_
  6
CONTINUOUS
 62
    2
 10
188.45950737589186
 20
134.54581386866624
 11
179.28348610926392
 21
137.15796184427859
  0
LINE
  8
_1-0_
  6
CONTINUOUS
 62
    2
 10
185.24616723521407
 20
127.40500988719457
 11
188.45950737589186
 21
134.54581386866624
  0
LINE
  8
_1-0_
  6
CONTINUOUS
 62
    2
 10
238.34664182479389
 20
127.3035719319053
 11
235.06165548347212
 21
134.60355395127817
  0
LINE
  8
_1-0_
  6
CONTINUOUS
 62
    2
 10
235.06165548347212
 20
134.60355395127817
 11
244.09075935541046
 21
137.17388459686515
  0
LINE
  8
_1-0_
  6
CONTINUOUS
 62
    2
 10
244.09075935541046
 20
137.17388459686515
 11
241.89158844377616
 21
137.17388459686515
  0
LINE
  8
_1-0_
  6
CONTINUOUS
 62
    2
 10
185.24616723521407
 20
127.40500988719457
 11
211.90910718321874
 21
115.40667763159911
  0
LINE
  8
_1-0_
  6
CONTINUOUS
 62
    2
 10
211.90910718321874
 20
115.40667763159911
 11
238.34664182479389
 21
127.3035719319053
  0
LINE
  8
_1-0_
  6
CONTINUOUS
 62
    7
 10
193.40497576298014
 20
145.53568038312994
 11
219.83260043965876
 21
133.64323999963122
  0
LINE
  8
_1-0_
  6
CONTINUOUS
 62
    7
 10
190.70404637900631
 20
139.53361920940739
 11
193.40497576298014
 21
145.53568038312994
  0
LINE
  8
_1-0_
  6
CONTINUOUS
 62
    7
 10
217.13167105568496
 20
127.64117882590867
 11
219.83260043965876
 21
133.64323999963122
  0
LINE
  8
_1-0_
  6
CONTINUOUS
 62
    7
 10
219.7629213856047
 20
123.3319029667976
 11
238.80623655135639
 21
71.010839074536179
  0
LINE
  8
_1-0_
  6
CONTINUOUS
 62
    7
 10
219.7629213856047
 20
123.3319029667976
 11
218.63739186438428
 21
118.61760523400622
  0
LINE
  8
_1-0_
  6
CONTINUOUS
 62
    7
 10
238.80623655135639
 20
71.010839074536179
 11
241.79721489542314
 21
71.010839074536179
  0
POINT
  8
_1-0_
 62
    7
 10
193.40497576298014
 20
145.53568038312994
  0
POINT
  8
_1-0_
 62
    7
 10
219.83260043965876
 20
133.64323999963122
  0
TEXT
  8
_1-0_
 62
    7
 10
205.1141171770918
 20
140.8148482359812
 40
3
 41
1
 50
-24.227641889855363
  1
150
  0
TEXT
  8
_1-0_
 62
    7
 10
243.86504062520564
 20
69.403012223026465
 40
3
 41
1
 50
0
  1
谷樋　ステンレス　ｔ＝0.4
  0
LINE
  8
_1-0_
  6
CONTINUOUS
 62
    7
 10
211.90910718321874
 20
91.522721959618536
 11
76.871880199667203
 21
152.28948261668336
  0
LINE
  8
_1-0_
  6
CONTINUOUS
 62
    7
 10
211.90910718321874
 20
92.838631680374448
 11
76.871880199667203
 21
153.60538382297264
  0
LINE
  8
_1-0_
  6
CONTINUOUS
 62
    7
 10
211.90910718321874
 20
97.224972672245229
 11
76.871880199667203
 21
157.99173332931005
  0
LINE
  8
_1-0_
  6
CONTINUOUS
 62
    7
 10
211.90910718321874
 20
110.38399564785757
 11
76.871880199667203
 21
171.15074779045577
  0
LINE
  8
_1-0_
  6
CONTINUOUS
 62
    7
 10
211.90910718321874
 20
113.01580271737825
 11
76.871880199667203
 21
173.78255485997641
  0
LINE
  8
_1-0_
  6
DASHED1
 62
    3
 10
211.90910718321874
 20
113.67374520576507
 11
76.871880199667203
 21
174.44052289176315
  0
LINE
  8
_1-0_
  6
CONTINUOUS
 62
    7
 10
211.90910718321874
 20
114.33171243813416
 11
76.871880199667203
 21
175.09845606626573
  0
LINE
  8
_1-0_
  6
CONTINUOUS
 62
    7
 10
211.90910718321874
 20
114.98965492652098
 11
76.871880199667203
 21
175.75642409805243
  0
LINE
  8
_1-0_
  6
CONTINUOUS
 62
    7
 10
211.90910718321874
 20
91.52272814561411
 11
350.81530782029949
 21
154.03052270557478
  0
LINE
  8
_1-0_
  6
CONTINUOUS
 62
    7
 10
211.90910718321874
 20
114.98965492652098
 11
350.81530782029949
 21
177.49746230630467
  0
LINE
  8
_1-0_
  6
CONTINUOUS
 62
    7
 10
211.90910718321874
 20
92.838631680374448
 11
350.81530782029949
 21
155.34641342051216
  0
LINE
  8
_1-0_
  6
CONTINUOUS
 62
    7
 10
211.90910718321874
 20
97.224966486249656
 11
350.81530782029949
 21
159.73276959275898
  0
LINE
  8
_1-0_
  6
CONTINUOUS
 62
    7
 10
211.90910718321874
 20
110.38399564785757
 11
350.81530782029949
 21
172.89178593454392
  0
LINE
  8
_1-0_
  6
CONTINUOUS
 62
    7
 10
211.90910718321874
 20
113.01580271737825
 11
350.81530782029949
 21
175.52360155061325
  0
LINE
  8
_1-0_
  6
DASHED1
 62
    3
 10
211.90910718321874
 20
113.67374520576507
 11
350.81530782029949
 21
176.18156113209739
  0
LINE
  8
_1-0_
  6
CONTINUOUS
 62
    7
 10
211.90910718321874
 20
114.33171243813416
 11
350.81530782029949
 21
176.83950272482053
  0
LINE
  8
ADD_LINE
  6
DOT
 62
    4
 10
290.29885954544426
 20
153.55480913101846
 11
225.4926896658647
 21
132.41080035769556
  0
LINE
  8
_1-0_
  6
CONTINUOUS
 62
    7
 10
290.29885954544426
 20
153.55480913101846
 11
349.45503000742519
 21
180.17508584144989
  0
LINE
  8
_1-0_
  6
CONTINUOUS
 62
    7
 10
133.51935482099321
 20
153.55480913101846
 11
77.566097267126196
 21
178.7337750326611
  0
LINE
  8
_1-1_
  6
CONTINUOUS
 62
    7
 10
285.92162433904645
 20
151.58505205094033
 11
244.34025113957372
 21
132.87343410939224
  0
ARC
  8
_1-1_
  6
CONTINUOUS
 62
    7
 10
239.25608200187091
 20
183.86327701123548
 40
48.37233941314809
 50
293.13147472627855
 51
312.38554713361771
  0
LINE
  8
_1-1_
  6
CONTINUOUS
 62
    7
 10
240.88668081430995
 20
141.43161491646268
 11
249.56817354365674
 21
139.19740722909364
  0
LINE
  8
ADD_LINE
  6
DOT
 62
    4
 10
221.73130014479466
 20
122.94242312444214
 11
250.99594001971414
 21
136.11151106941247
  0
LINE
  8
_1-1_
  6
CONTINUOUS
 62
    7
 10
258.25878548796902
 20
139.37979153043898
 11
250.96341344668537
 21
136.09687411154812
  0
LINE
  8
_1-1_
  6
CONTINUOUS
 62
    7
 10
249.56817354365674
 20
139.19740722909364
 11
256.86354558494037
 21
142.48032464798453
  0
ARC
  8
_1-1_
  6
CONTINUOUS
 62
    7
 10
240.60421812786521
 20
114.47044881442484
 40
23.979474531055072
 50
64.405282611073346
 51
140.67146967804825
  0
LINE
  8
_1-1_
  6
CONTINUOUS
 62
    7
 10
221.07062650719678
 20
131.85643911141651
 11
222.05550173286406
 21
129.6678274990314
  0
ARC
  8
_1-1_
  6
CONTINUOUS
 62
    7
 10
238.23982864624674
 20
121.61685249771212
 40
19.990763770079191
 50
82.39148176885513
 51
149.18845870482963
  0
ARC
  8
_1-1_
  6
CONTINUOUS
 62
    7
 10
236.94359905491552
 20
192.10778950378898
 40
53.476065092461276
 50
291.87001124548618
 51
318.28568865410858
  0
ARC
  8
_1-1_
  6
CONTINUOUS
 62
    7
 10
255.20556171471907
 20
165.60066751948051
 40
24.13714001484826
 50
313.6447571335442
 51
321.31841711872312
  0
ARC
  8
_1-1_
  6
CONTINUOUS
 62
    7
 10
159.39892427672686
 20
266.22669568339967
 40
162.07522092457108
 50
313.72666678442789
 51
314.84360993147516
  0
ARC
  8
_1-1_
  6
CONTINUOUS
 62
    7
 10
272.07835520787933
 20
159.54014505782968
 40
6.8071264751187801
 50
303.73662327358124
 51
321.91111914442581
  0
ARC
  8
_1-1_
  6
CONTINUOUS
 62
    7
 10
267.98641782362216
 20
158.77753119603514
 40
9.7883251327472198
 50
307.03030829725662
 51
326.1035441099786
  0
LINE
  8
_1-1_
  6
CONTINUOUS
 62
    7
 10
273.71946678385757
 20
151.32300329359816
 11
274.07706646465545
 21
150.52833733634532
  0
LINE
  8
_1-1_
  6
CONTINUOUS
 62
    7
 10
275.85887053733086
 20
153.87934346335163
 11
276.11118561694298
 21
153.31864328648913
  0
LINE
  8
_1-1_
  6
CONTINUOUS
 62
    7
 10
276.86198419292901
 20
156.52391582839525
 11
277.40943760836194
 21
155.30735268310491
  0
LINE
  8
_1-1_
  6
CONTINUOUS
 62
    7
 10
270.72957215606988
 20
150.65664284436315
 11
271.864654344869
 21
148.1342379806058
  0
LINE
  8
_1-1_
  6
CONTINUOUS
 62
    7
 10
273.09756918489188
 20
152.70499795783456
 11
272.83805813761467
 21
153.28168917395109
  0
ARC
  8
_1-1_
  6
CONTINUOUS
 62
    7
 10
236.94359905491552
 20
192.10778950378898
 40
52.876065092461275
 50
312.75316777613142
 51
314.36086081840847
  0
LINE
  8
_1-1_
  6
CONTINUOUS
 62
    7
 10
275.68331676607306
 20
155.24420571934147
 11
275.41714474245737
 21
155.83569910509769
  0
LINE
  8
_1-1_
  6
CONTINUOUS
 62
    7
 10
274.17527359606265
 20
153.72169894177352
 11
273.91322797842798
 21
154.30402253646162
  0
ARC
  8
_1-1_
  6
CONTINUOUS
 62
    7
 10
285.53268109489193
 20
204.64813646915641
 40
48.37233941314809
 50
293.13147472627855
 51
312.38554713361771
  0
LINE
  8
_1-1_
  6
CONTINUOUS
 62
    7
 10
287.163279907331
 20
162.21647437438361
 11
295.84477263667782
 21
159.98226668701457
  0
LINE
  8
ADD_LINE
  6
DOT
 62
    4
 10
268.00789923781571
 20
143.72728258236305
 11
297.27253911273522
 21
156.89637052733337
  0
LINE
  8
_1-1_
  6
CONTINUOUS
 62
    7
 10
304.53538458099001
 20
160.16465098835991
 11
297.24001253970641
 21
156.88173356946902
  0
LINE
  8
_1-1_
  6
CONTINUOUS
 62
    7
 10
295.84477263667782
 20
159.98226668701457
 11
303.14014467796142
 21
163.26518410590546
  0
ARC
  8
_1-1_
  6
CONTINUOUS
 62
    7
 10
286.88081722088623
 20
135.25530827234576
 40
23.979474531055072
 50
64.405282611073346
 51
140.67146967804825
  0
LINE
  8
_1-1_
  6
CONTINUOUS
 62
    7
 10
267.34722560021783
 20
152.64129856933744
 11
268.33210082588511
 21
150.45268695695233
  0
ARC
  8
_1-1_
  6
CONTINUOUS
 62
    7
 10
284.51642773926778
 20
142.40171195563303
 40
19.990763770079191
 50
82.39148176885513
 51
149.18845870482963
  0
ARC
  8
_1-1_
  6
CONTINUOUS
 62
    7
 10
283.22019814793657
 20
212.89264896170988
 40
53.476065092461276
 50
291.87001124548618
 51
318.28568865410858
  0
ARC
  8
_1-1_
  6
CONTINUOUS
 62
    7
 10
301.48216080774012
 20
186.38552697740141
 40
24.13714001484826
 50
313.6447571335442
 51
321.31841711872312
  0
ARC
  8
_1-1_
  6
CONTINUOUS
 62
    7
 10
205.67552336974791
 20
287.01155514132057
 40
162.07522092457108
 50
313.72666678442789
 51
314.84360993147516
  0
ARC
  8
_1-1_
  6
CONTINUOUS
 62
    7
 10
318.35495430090043
 20
180.32500451575061
 40
6.8071264751187801
 50
303.73662327358124
 51
321.91111914442581
  0
ARC
  8
_1-1_
  6
CONTINUOUS
 62
    7
 10
314.26301691664321
 20
179.56239065395607
 40
9.7883251327472198
 50
307.03030829725662
 51
326.1035441099786
  0
LINE
  8
_1-1_
  6
CONTINUOUS
 62
    7
 10
319.99606587687862
 20
172.10786275151906
 11
320.35366555767655
 21
171.31319679426625
  0
LINE
  8
_1-1_
  6
CONTINUOUS
 62
    7
 10
322.13546963035185
 20
174.66420292127253
 11
322.38778470996408
 21
174.10350274441004
  0
LINE
  8
_1-1_
  6
CONTINUOUS
 62
    7
 10
323.13858328595006
 20
177.30877528631618
 11
323.68603670138293
 21
176.09221214102581
  0
LINE
  8
_1-1_
  6
CONTINUOUS
 62
    7
 10
317.00617124909093
 20
171.44150230228405
 11
318.14125343789004
 21
168.91909743852673
  0
LINE
  8
_1-1_
  6
CONTINUOUS
 62
    7
 10
319.37416827791287
 20
173.48985741575549
 11
319.11465723063571
 21
174.06654863187202
  0
ARC
  8
_1-1_
  6
CONTINUOUS
 62
    7
 10
283.22019814793657
 20
212.89264896170988
 40
52.876065092461275
 50
312.75316777613142
 51
314.36086081840847
  0
LINE
  8
_1-1_
  6
CONTINUOUS
 62
    7
 10
321.95991585909411
 20
176.0290651772624
 11
321.69374383547841
 21
176.62055856301862
  0
LINE
  8
_1-1_
  6
CONTINUOUS
 62
    7
 10
320.4518726890837
 20
174.50655839969443
 11
320.18982707144903
 21
175.08888199438252
  0
LINE
  8
_1-1_
  6
CONTINUOUS
 62
    7
 10
333.30501262678638
 20
182.85362654173639
 11
341.98650535613319
 21
180.61941885436738
  0
LINE
  8
ADD_LINE
  6
DOT
 62
    4
 10
314.14963195727103
 20
164.36443474971585
 11
343.41427183219054
 21
177.53352269468616
  0
LINE
  8
_1-1_
  6
CONTINUOUS
 62
    7
 10
350.67711730044539
 20
180.80180315571272
 11
343.38174525916179
 21
177.51888573682183
  0
LINE
  8
_1-1_
  6
CONTINUOUS
 62
    7
 10
341.98650535613319
 20
180.61941885436738
 11
349.28187739741679
 21
183.90233627325824
  0
ARC
  8
_1-1_
  6
CONTINUOUS
 62
    7
 10
333.02254994034161
 20
155.89246043969854
 40
23.979474531055072
 50
64.405282611073346
 51
140.67146967804825
  0
LINE
  8
_1-1_
  6
CONTINUOUS
 62
    7
 10
313.4889583196732
 20
173.27845073669022
 11
314.47383354534048
 21
171.08983912430512
  0
ARC
  8
_1-1_
  6
CONTINUOUS
 62
    7
 10
330.65816045872316
 20
163.03886412298584
 40
19.990763770079191
 50
82.39148176885513
 51
149.18845870482963
  0
LINE
  8
_1-1_
  6
CONTINUOUS
 62
    7
 10
323.13858328595006
 20
177.30877528631618
 11
322.97755989048443
 21
177.6666050539834
  0
ARC
  8
_1-1_
  6
CONTINUOUS
 62
    7
 10
283.22019814793657
 20
212.89264896170988
 40
52.876065092461275
 50
316.68702348972823
 51
317.83075024482957
  0
ARC
  8
_1-1_
  6
CONTINUOUS
 62
    7
 10
236.94359905491552
 20
192.10778950378898
 40
52.876065092461275
 50
316.68702348972823
 51
318.04428534107086
  0
LINE
  8
_1-1_
  6
CONTINUOUS
 62
    7
 10
276.86198419292901
 20
156.52391582839525
 11
276.66939228125352
 21
156.9518978543
  0
ARC
  8
_1-1_
  6
CONTINUOUS
 62
    7
 10
163.58386055692759
 20
193.50908422446167
 40
48.37233941314809
 50
244.67598408627856
 51
263.93005649361771
  0
LINE
  8
_1-1_
  6
CONTINUOUS
 62
    7
 10
132.90769146345838
 20
164.1479287573996
 11
136.99309980635795
 21
156.16861558697155
  0
LINE
  8
ADD_LINE
  6
DOT
 62
    4
 10
106.36574660143862
 20
166.22253345653195
 11
135.6303864763581
 21
153.05344551156165
  0
LINE
  8
_1-1_
  6
CONTINUOUS
 62
    7
 10
142.89323194461295
 20
149.78516505053511
 11
135.59785990332932
 21
153.06808246942597
  0
LINE
  8
_1-1_
  6
CONTINUOUS
 62
    7
 10
136.99309980635795
 20
156.16861558697155
 11
144.28847184764157
 21
152.88569816808067
  0
ARC
  8
_1-1_
  6
CONTINUOUS
 62
    7
 10
112.54152640250948
 20
146.47864514257549
 40
23.979474531055072
 50
15.949791971073356
 51
92.215979038048275
  0
LINE
  8
_1-1_
  6
CONTINUOUS
 62
    7
 10
112.59919954351157
 20
172.62879875625322
 11
111.61432431784431
 21
170.44018714386812
  0
ARC
  8
_1-1_
  6
CONTINUOUS
 62
    7
 10
116.32211908768765
 20
152.98775738420011
 40
19.990763770079191
 50
33.935991128855136
 51
100.73296806482963
  0
ARC
  8
_1-1_
  6
CONTINUOUS
 62
    7
 10
168.22074712135122
 20
200.70761508905463
 40
53.476065092461276
 50
243.41452060548619
 51
269.83019801410859
  0
ARC
  8
_1-1_
  6
CONTINUOUS
 62
    7
 10
160.49310091148206
 20
169.46005070182338
 40
24.13714001484826
 50
265.18926649354421
 51
272.86292647872313
  0
ARC
  8
_1-1_
  6
CONTINUOUS
 62
    7
 10
172.26659945835686
 20
307.90099137035355
 40
162.07522092457108
 50
265.2711761444279
 51
266.38811929147516
  0
ARC
  8
_1-1_
  6
CONTINUOUS
 62
    7
 10
167.14722365067539
 20
152.81241593460328
 40
6.8071264751187801
 50
255.28113263358125
 51
273.45562850442582
  0
ARC
  8
_1-1_
  6
CONTINUOUS
 62
    7
 10
163.86267268240877
 20
155.36922183176117
 40
9.7883251327472198
 50
258.57481765725663
 51
277.64805346997861
  0
LINE
  8
_1-1_
  6
CONTINUOUS
 62
    7
 10
162.08556784482161
 20
146.13451907396262
 11
161.72796816402371
 21
145.3398531167098
  0
LINE
  8
_1-1_
  6
CONTINUOUS
 62
    7
 10
165.41769312231108
 20
146.22867117954792
 11
165.1653780426989
 21
145.66797100268545
  0
LINE
  8
_1-1_
  6
CONTINUOUS
 62
    7
 10
168.06226548735469
 20
147.23178483514613
 11
167.51481207192182
 21
146.01522168985576
  0
LINE
  8
_1-1_
  6
CONTINUOUS
 62
    7
 10
159.60393344164657
 20
147.93034668889578
 11
158.46885125284746
 21
145.40794182513844
  0
LINE
  8
_1-1_
  6
CONTINUOUS
 62
    7
 10
162.70746544378733
 20
147.51651373819905
 11
162.96697649106451
 21
148.09320495431558
  0
LINE
  8
_1-1_
  6
CONTINUOUS
 62
    7
 10
168.06226548735469
 20
147.23178483514613
 11
168.33221267953894
 21
147.8316674843872
  0
ARC
  8
_1-1_
  6
CONTINUOUS
 62
    7
 10
168.22074712135122
 20
200.70761508905463
 40
52.876065092461275
 50
268.23153284972824
 51
270.1207826407699
  0
ARC
  8
_1-1_
  6
CONTINUOUS
 62
    7
 10
168.22074712135122
 20
200.70761508905463
 40
52.876065092461275
 50
264.29767713613143
 51
265.90537017840848
  0
LINE
  8
_1-1_
  6
CONTINUOUS
 62
    7
 10
166.32278409769722
 20
147.2652416936487
 11
166.58895612131292
 21
147.85673507940493
  0
LINE
  8
_1-1_
  6
CONTINUOUS
 62
    7
 10
164.18314124706581
 20
147.38419362552617
 11
164.44518686470045
 21
147.96651722021426
  0
ARC
  8
_1-1_
  6
CONTINUOUS
 62
    7
 10
115.93922502158853
 20
214.7194906186854
 40
48.37233941314809
 50
244.67598408627856
 51
263.93005649361771
  0
LINE
  8
_1-1_
  6
CONTINUOUS
 62
    7
 10
85.263055928119314
 20
185.35833515162329
 11
89.348464271018884
 21
177.37902198119525
  0
LINE
  8
ADD_LINE
  6
DOT
 62
    4
 10
58.721111066099553
 20
187.43293985075564
 11
87.985750941019035
 21
174.26385190578537
  0
LINE
  8
_1-1_
  6
CONTINUOUS
 62
    7
 10
95.248596409273887
 20
170.99557144475881
 11
87.953224367990259
 21
174.2784888636497
  0
LINE
  8
_1-1_
  6
CONTINUOUS
 62
    7
 10
89.348464271018884
 20
177.37902198119525
 11
96.643836312302511
 21
174.09610456230439
  0
ARC
  8
_1-1_
  6
CONTINUOUS
 62
    7
 10
120.57611158601216
 20
221.91802148327835
 40
53.476065092461276
 50
243.41452060548619
 51
269.83019801410859
  0
ARC
  8
_1-1_
  6
CONTINUOUS
 62
    7
 10
112.848465376143
 20
190.6704570960471
 40
24.13714001484826
 50
265.18926649354421
 51
272.86292647872313
  0
ARC
  8
_1-1_
  6
CONTINUOUS
 62
    7
 10
124.6219639230178
 20
329.11139776457725
 40
162.07522092457108
 50
265.2711761444279
 51
266.38811929147516
  0
ARC
  8
_1-1_
  6
CONTINUOUS
 62
    7
 10
119.50258811533632
 20
174.02282232882698
 40
6.8071264751187801
 50
255.28113263358125
 51
273.45562850442582
  0
ARC
  8
_1-1_
  6
CONTINUOUS
 62
    7
 10
116.21803714706971
 20
176.57962822598489
 40
9.7883251327472198
 50
258.57481765725663
 51
277.64805346997861
  0
LINE
  8
_1-1_
  6
CONTINUOUS
 62
    7
 10
114.44093230948255
 20
167.34492546818632
 11
114.08333262868464
 21
166.55025951093353
  0
LINE
  8
_1-1_
  6
CONTINUOUS
 62
    7
 10
117.77305758697202
 20
167.43907757377164
 11
117.52074250735984
 21
166.87837739690917
  0
LINE
  8
_1-1_
  6
CONTINUOUS
 62
    7
 10
120.41762995201563
 20
168.44219122936983
 11
119.87017653658276
 21
167.22562808407949
  0
LINE
  8
_1-1_
  6
CONTINUOUS
 62
    7
 10
111.95929790630751
 20
169.14075308311948
 11
110.82421571750839
 21
166.61834821936216
  0
LINE
  8
_1-1_
  6
CONTINUOUS
 62
    7
 10
115.06282990844826
 20
168.72692013242278
 11
115.32234095572545
 21
169.30361134853928
  0
LINE
  8
_1-1_
  6
CONTINUOUS
 62
    7
 10
120.41762995201563
 20
168.44219122936983
 11
120.68757714419988
 21
169.04207387861092
  0
ARC
  8
_1-1_
  6
CONTINUOUS
 62
    7
 10
120.57611158601216
 20
221.91802148327835
 40
52.876065092461275
 50
268.23153284972824
 51
270.1207826407699
  0
ARC
  8
_1-1_
  6
CONTINUOUS
 62
    7
 10
120.57611158601216
 20
221.91802148327835
 40
52.876065092461275
 50
264.29767713613143
 51
265.90537017840848
  0
LINE
  8
_1-1_
  6
CONTINUOUS
 62
    7
 10
118.67814856235816
 20
168.4756480878724
 11
118.94432058597386
 21
169.06714147362862
  0
LINE
  8
_1-1_
  6
CONTINUOUS
 62
    7
 10
116.53850571172674
 20
168.59460001974986
 11
116.80055132936138
 21
169.17692361443798
  0
LINE
  8
_1-1_
  6
CONTINUOUS
 62
    7
 10
176.36044282986231
 20
148.00776268113367
 11
182.0233182883502
 21
141.05852951900306
  0
LINE
  8
ADD_LINE
  6
DOT
 62
    4
 10
149.97107467192794
 20
144.48923032500002
 11
181.34177700488613
 21
137.7273474919408
  0
LINE
  8
_1-1_
  6
CONTINUOUS
 62
    7
 10
189.12730125014303
 20
136.04919562330824
 11
181.30690962074067
 21
137.73486307650705
  0
LINE
  8
_1-1_
  6
CONTINUOUS
 62
    7
 10
182.0233182883502
 20
141.05852951900306
 11
189.84370991775253
 21
139.37286206580424
  0
ARC
  8
_1-1_
  6
CONTINUOUS
 62
    7
 10
160.13697603720419
 20
126.47213201986843
 40
23.979474531055072
 50
28.013665921073358
 51
104.27985298804828
  0
LINE
  8
_1-1_
  6
CONTINUOUS
 62
    7
 10
154.72794079001596
 20
152.05681880522525
 11
154.22224055405633
 21
149.71070131640454
  0
ARC
  8
_1-1_
  6
CONTINUOUS
 62
    7
 10
162.47365758250305
 20
133.62764336296266
 40
19.990763770079191
 50
45.999865078855137
 51
112.79684201482964
  0
ARC
  8
_1-1_
  6
CONTINUOUS
 62
    7
 10
203.25256913766975
 20
191.1405356874148
 40
53.476065092461276
 50
255.47839455548615
 51
264.77367554341947
  0
LINE
  8
_1-1_
  6
CONTINUOUS
 62
    7
 10
198.3814275154277
 20
137.8867891800636
 11
198.3814275154277
 21
134.79457714728258
  0
ARC
  8
_1-1_
  6
CONTINUOUS
 62
    7
 10
200.22259466147412
 20
183.13186424369627
 40
48.37233941314809
 50
256.73985803627852
 51
267.81865842372986
  0
ARC
  8
_1-1_
  6
CONTINUOUS
 62
    7
 10
64.896890867170413
 20
167.68905153679918
 40
23.979474531055072
 50
15.949791971073356
 51
52.211518902449583
  0
ARC
  8
_1-1_
  6
CONTINUOUS
 62
    7
 10
68.677483552348576
 20
174.1981637784238
 40
19.990763770079191
 50
33.935991128855136
 51
61.598609850434656
  0
LINE
  8
_1-0_
  6
CONTINUOUS
 62
    7
 10
139.16993587091838
 20
137.56111561653429
 11
101.3058281719108
 21
241.59189383127247
  0
LINE
  8
_1-0_
  6
CONTINUOUS
 62
    7
 10
101.3058281719108
 20
241.59189383127247
 11
118.99183074858411
 21
241.59189383127247
  0
TEXT
  8
_1-0_
 62
    7
 10
125.95522553222276
 20
240.26925374734088
 40
3
 41
1
 50
0
  1
桟瓦
  0
TEXT
  8
_1-0_
 62
    7
 10
140.33694867840359
 20
233.3781536628814
 40
3
 41
1
 50
0
  1
18ｘ24
  0
TEXT
  8
_1-0_
 62
    7
 10
140.33694764740434
 20
218.59102614229442
 40
3
 41
1
 50
0
  1
ゴムアス系ルーフィング
  0
LINE
  8
_1-0_
  6
CONTINUOUS
 62
    7
 10
113.799231838639
 20
207.26654675568125
 11
119.46874007673554
 21
207.26654675568125
  0
LINE
  8
_1-0_
  6
CONTINUOUS
 62
    7
 10
111.25144296089405
 20
214.26654510608239
 11
119.46874007673554
 21
214.26654510608239
  0
LINE
  8
_1-0_
  6
CONTINUOUS
 62
    7
 10
108.70364789715362
 20
221.26654345648362
 11
119.46874007673554
 21
221.26654345648362
  0
LINE
  8
_1-0_
  6
CONTINUOUS
 62
    7
 10
106.15585901940867
 20
228.26654180688479
 11
119.46874007673554
 21
228.26654180688479
  0
LINE
  8
_1-0_
  6
CONTINUOUS
 62
    7
 10
103.60807014166372
 20
235.26654015728599
 11
119.46874007673554
 21
235.26654015728599
  0
TEXT
  8
_1-0_
 62
    7
 10
125.95522553222276
 20
233.3781536628814
 40
3
 41
1
 50
0
  1
瓦桟
  0
TEXT
  8
_1-0_
 62
    7
 10
125.955226563222
 20
225.87424411368374
 40
3
 41
1
 50
0
  1
流し桟
  0
TEXT
  8
_1-0_
 62
    7
 10
125.95522759422124
 20
218.59102614229442
 40
3
 41
1
 50
0
  1
下葺き材
  0
TEXT
  8
_1-0_
 62
    7
 10
125.955226563222
 20
211.96993239229442
 40
3
 41
1
 50
0
  1
野地板
  0
TEXT
  8
_1-0_
 62
    7
 10
125.95522553222276
 20
205.34881389831216
 40
3
 41
1
 50
0
  1
垂木
  0
TEXT
  8
_1-0_
 62
    7
 10
140.33694764740432
 20
211.96993239229442
 40
3
 41
1
 50
0
  1
耐水合板　ｔ＝12
  0
TEXT
  8
_1-0_
 62
    7
 10
140.33694970940286
 20
205.34881389831216
 40
3
 41
1
 50
0
  1
60ｘ60＠303
  0
TEXT
  8
_0-1_
 62
    7
 10
310.75285402229287
 20
13.379928041157285
 40
3
 41
1
 50
0
  1
〒475－0807　半田市八軒町２８番地
  0
ENDSEC
  0
EOF
