  0
SECTION
  2
HEADER
  9
$ACADVER
  1
AC1009
  9
$INSBASE
 10
0
 20
0
 30
0
  9
$EXTMIN
 10
0
 20
0
  9
$EXTMAX
 10
420
 20
297
  9
$LIMMIN
 10
0
 20
0
  9
$LIMMAX
 10
420
 20
297
  9
$LTSCALE
 40
1
  0
ENDSEC
  0
SECTION
  2
TABLES
  0
TABLE
  2
LTYPE
 70
     9
  0
LTYPE
  2
CONTINUOUS
 70
    64
  3
実線
 72
    65
 73
     0
 40
0.0
  0
LTYPE
  2
DASHED1
 70
    64
  3
--  --  --  --  --  --  --  --  
 72
    65
 73
     2
 40
2.5
 49
1.25
 49
-1.25
  0
LTYPE
  2
DASHED2
 70
    64
  3
----    ----    ----    ----    
 72
    65
 73
     2
 40
5.0
 49
2.5
 49
-2.5
  0
LTYPE
  2
DASHED3
 70
    64
  3
------  ------  ------  ------  
 72
    65
 73
     2
 40
5.0
 49
3.75
 49
-1.25
  0
LTYPE
  2
CENTER1
 70
    64
  3
----- - ----- - ----- - ----- - 
 72
    65
 73
     4
 40
10.0
 49
6.25
 49
-1.25
 49
1.25
 49
-1.25
  0
LTYPE
  2
CENTER2
 70
    64
  3
----------  --  ----------  --  
 72
    65
 73
     4
 40
20.0
 49
12.5
 49
-2.5
 49
2.5
 49
-2.5
  0
LTYPE
  2
PHANTOM1
 70
    64
  3
--- - - --- - - --- - - --- - - 
 72
    65
 73
     6
 40
10.0
 49
3.25
 49
-1.25
 49
1.25
 49
-1.25
 49
1.25
 49
-1.25
  0
LTYPE
  2
PHANTOM2
 70
    64
  3
--------  -  -  --------  -  -  
 72
    65
 73
     6
 40
20.0
 49
10.0
 49
-2.5
 49
1.25
 49
-2.5
 49
1.25
 49
-2.5
  0
LTYPE
  2
DOT
 70
    64
  3
-   -   -   -   -   -   -   -   
 72
    65
 73
     2
 40
2.5
 49
0.625
 49
-1.875
  0
LTYPE
  2
DUMMY
 70
    64
  3
ダミー
 72
    65
 73
     0
 40
0.0
  0
LTYPE
  2
RAND1
 70
    64
  3
ランダム線1
 72
    65
 73
     4
 40
10.0
 49
1.0
 49
-2.0
 49
3.0
 49
-4.0
  0
LTYPE
  2
RAND2
 70
    64
  3
ランダム線2
 72
    65
 73
     4
 40
14.0
 49
2.0
 49
-3.0
 49
4.0
 49
-5.0
  0
LTYPE
  2
RAND3
 70
    64
  3
ランダム線3
 72
    65
 73
     4
 40
18.0
 49
3.0
 49
-4.0
 49
5.0
 49
-6.0
  0
LTYPE
  2
RAND4
 70
    64
  3
ランダム線4
 72
    65
 73
     4
 40
22.0
 49
4.0
 49
-5.0
 49
6.0
 49
-7.0
  0
LTYPE
  2
RAND5
 70
    64
  3
ランダム線5
 72
    65
 73
     4
 40
26.0
 49
5.0
 49
-6.0
 49
7.0
 49
-8.0
  0
LTYPE
  2
LONG1
 70
    64
  3
----------  --  ----------  --  
 72
    65
 73
     4
 40
40.0
 49
32.5
 49
-2.5
 49
2.5
 49
-2.5
  0
LTYPE
  2
LONG2
 70
    64
  3
--------  -  -  --------  -  -  
 72
    65
 73
     6
 40
40.0
 49
30.0
 49
-2.5
 49
1.25
 49
-2.5
 49
1.25
 49
-2.5
  0
LTYPE
  2
LONG3
 70
    64
  3
+++++++++++++++..+++++++++++++++
 72
    65
 73
     2
 40
40.0
 49
37.5
 49
-2.5
  0
LTYPE
  2
LONG4
 70
    64
  3
+++++++++++++++..+++++++++++++++
 72
    65
 73
     2
 40
80.0
 49
75.0
 49
-5.0
  0
LTYPE
  2
LONG5
 70
    64
  3
----------  --  ----------  --  
 72
    65
 73
     4
 40
60.0
 49
37.5
 49
-7.5
 49
7.5
 49
-7.5
  0
LTYPE
  2
dashed
 70
   64
  3
-------   -------------   ------
 72
   65
 73
    2
 40
7.5
 49
6
 49
-1.5
  0
LTYPE
  2
dashed_spaced
 70
   64
  3
----        --------        ----
 72
   65
 73
    2
 40
12
 49
6
 49
-6
  0
LTYPE
  2
long_dashed_dotted
 70
   64
  3
------------- --- --------------
 72
   65
 73
    4
 40
15.25
 49
12
 49
-1.5
 49
0.25
 49
-1.5
  0
LTYPE
  2
long_dashed_double-dotted
 70
   64
  3
----------- --- --- ------------
 72
   65
 73
    6
 40
17
 49
12
 49
-1.5
 49
0.25
 49
-1.5
 49
0.25
 49
-1.5
  0
LTYPE
  2
long_dashed_triplicate-dotted
 70
   64
  3
--------- --- --- --- ----------
 72
   65
 73
    8
 40
18.75
 49
12
 49
-1.5
 49
0.25
 49
-1.5
 49
0.25
 49
-1.5
 49
0.25
 49
-1.5
  0
LTYPE
  2
dotted
 70
   64
  3
   -       -       -       -    
 72
   65
 73
    2
 40
1.75
 49
0.25
 49
-1.5
  0
LTYPE
  2
chain
 70
   64
  3
-------------- -- --------------
 72
   65
 73
    4
 40
18.5
 49
12
 49
-1.5
 49
3.5
 49
-1.5
  0
LTYPE
  2
chain_double_dash
 70
   64
  3
------------ -- -- -------------
 72
   65
 73
    6
 40
23.5
 49
12
 49
-1.5
 49
3.5
 49
-1.5
 49
3.5
 49
-1.5
  0
LTYPE
  2
dashed_dotted
 70
   64
  3
-----------     -     ----------
 72
   65
 73
    4
 40
9.25
 49
6
 49
-1.5
 49
0.25
 49
-1.5
  0
LTYPE
  2
double-dashed_dotted
 70
   64
  3
------   -----------   -   -----
 72
   65
 73
    6
 40
16.75
 49
6
 49
-1.5
 49
6
 49
-1.5
 49
0.25
 49
-1.5
  0
LTYPE
  2
dashed_double-dotted
 70
   64
  3
---------    -    -    ---------
 72
   65
 73
    6
 40
11
 49
6
 49
-1.5
 49
0.25
 49
-1.5
 49
0.25
 49
-1.5
  0
LTYPE
  2
double-dashed_double-dotted
 70
   64
  3
-----   ---------   -   -   ----
 72
   65
 73
    8
 40
18.5
 49
6
 49
-1.5
 49
6
 49
-1.5
 49
0.25
 49
-1.5
 49
0.25
 49
-1.5
  0
LTYPE
  2
dashed_triplicate-dotted
 70
   64
  3
-------    -    -    -    ------
 72
   65
 73
    8
 40
12.75
 49
6
 49
-1.5
 49
0.25
 49
-1.5
 49
0.25
 49
-1.5
 49
0.25
 49
-1.5
  0
LTYPE
  2
double-dashed_triplicate-dotted
 70
   64
  3
-----  ---------  -  -  -  -----
 72
   65
 73
   10
 40
20.25
 49
6
 49
-1.5
 49
6
 49
-1.5
 49
0.25
 49
-1.5
 49
0.25
 49
-1.5
 49
0.25
 49
-1.5
  0
LTYPE
  2
undefined
 70
   64
  3
--------------------------------
 72
   65
 73
    0
 40
0
  0
ENDTAB
  0
TABLE
  2
STYLE
  5
3
100
AcDbSymbolTable
 70
     1
  0
STYLE
  5
10
100
AcDbSymbolTableRecord
100
AcDbTextStyleTableRecord
  2
STANDARD
 70
     0
 40
0.0
 41
1.0
 50
0.0
 71
     0
 42
0.2
  3
txt
  4
bigfont.shx
  0
STYLE
  5
26
100
AcDbSymbolTableRecord
100
AcDbTextStyleTableRecord
  2
TATEGAKI
 70
    68
 40
0.0
 41
1.0
 50
0.0
 71
     0
 42
1.0
  3
txt
  4
bigfont.shx
  0
ENDTAB
  0
TABLE
  2
LAYER
 70
    5
  0
LAYER
  2
_0-1_
 70
   64
 62
    7
  6
CONTINUOUS
  0
LAYER
  2
_1-0_
 70
   64
 62
    7
  6
CONTINUOUS
  0
LAYER
  2
_1-1_
 70
   64
 62
    7
  6
CONTINUOUS
  0
LAYER
  2
_1-2_
 70
   64
 62
    7
  6
CONTINUOUS
  0
LAYER
  2
ADD_LINE
 70
   64
 62
    7
  6
CONTINUOUS
  0
ENDTAB
  0
ENDSEC
  0
SECTION
  2
BLOCKS
  0
ENDSEC
  0
SECTION
  2
ENTITIES
  0
ARC
  8
_1-2_
  6
CONTINUOUS
 62
    7
 10
210.05309408160471
 20
182.26735405590023
 40
19.919484112713789
 50
16.08660888671875
 51
163.91339111328125
  0
LINE
  8
_0-1_
  6
CONTINUOUS
 62
    7
 10
213.43723606418919
 20
25.680405900285052
 11
213.43723606418919
 21
11.080383094581407
  0
LINE
  8
ADD_LINE
  6
DOT
 62
    7
 10
125.8372415078653
 20
22.837599161508919
 11
205.20021180848818
 21
22.837599161508919
  0
LINE
  8
_0-1_
  6
CONTINUOUS
 62
    7
 10
7.5772530323750402
 20
25.680405900285052
 11
412.72727347709042
 21
25.680405900285052
  0
LINE
  8
_0-1_
  6
CONTINUOUS
 62
    5
 10
7.5772530323750402
 20
293.59039306640625
 11
412.72727347709042
 21
293.59039306640625
  0
LINE
  8
_0-1_
  6
CONTINUOUS
 62
    5
 10
7.5772530323750402
 20
8.8904053456074621
 11
412.72727347709042
 21
8.8904053456074621
  0
LINE
  8
_0-1_
  6
CONTINUOUS
 62
    7
 10
412.72727347709042
 20
25.680405900285052
 11
412.72727347709042
 21
11.080383094581407
  0
LINE
  8
_0-1_
  6
CONTINUOUS
 62
    7
 10
7.5772530323750402
 20
14.83471019847974
 11
7.5772530323750402
 21
11.080383094581407
  0
LINE
  8
_0-1_
  6
CONTINUOUS
 62
    7
 10
7.5772530323750402
 20
25.680405900285052
 11
7.5772530323750402
 21
19.857313310777812
  0
LINE
  8
_0-1_
  6
CONTINUOUS
 62
    7
 10
7.5772530323750402
 20
19.857313310777812
 11
7.5772530323750402
 21
19.500178775271849
  0
LINE
  8
_0-1_
  6
CONTINUOUS
 62
    7
 10
7.5772530323750402
 20
19.857313310777812
 11
7.5772530323750402
 21
14.83471019847974
  0
LINE
  8
_0-1_
  6
CONTINUOUS
 62
    7
 10
7.5772530323750402
 20
11.080383094581407
 11
412.72727347709042
 21
11.080383094581407
  0
LINE
  8
_0-1_
  6
CONTINUOUS
 62
    7
 10
407.77127652554901
 20
21.534768181878164
 11
399.98847755225933
 21
13.751918174125052
  0
LINE
  8
_0-1_
  6
CONTINUOUS
 62
    7
 10
412.72727347709042
 20
11.080383094581407
 11
412.72727347709042
 21
25.680405900285052
  0
LINE
  8
_0-1_
  6
CONTINUOUS
 62
    7
 10
290.08723903346709
 20
25.680405900285052
 11
290.08723903346709
 21
19.020202739818671
  0
LINE
  8
_0-1_
  6
CONTINUOUS
 62
    7
 10
290.08723903346709
 20
19.020202739818671
 11
290.08723903346709
 21
11.080383094581407
  0
LINE
  8
_0-1_
  6
CONTINUOUS
 62
    7
 10
213.43723606418919
 20
18.380405322925469
 11
288.84424982844172
 21
18.380405322925469
  0
LINE
  8
_0-1_
  6
CONTINUOUS
 62
    7
 10
306.87721871040964
 20
25.680405900285052
 11
306.87721871040964
 21
19.857313310777812
  0
LINE
  8
_0-1_
  6
CONTINUOUS
 62
    7
 10
306.87721871040964
 20
19.857313310777812
 11
306.87721871040964
 21
11.080383094581407
  0
LINE
  8
_0-1_
  6
CONTINUOUS
 62
    7
 10
213.43723606418919
 20
18.380405322925469
 11
290.08723903346709
 21
18.380405322925469
  0
LINE
  8
_0-1_
  6
CONTINUOUS
 62
    7
 10
394.47725038270693
 20
25.680405900285052
 11
394.47725038270693
 21
11.080383094581407
  0
LINE
  8
ADD_LINE
  6
DOT
 62
    7
 10
18.655595521669142
 20
22.837599161508919
 11
48.897418460330442
 21
22.837599161508919
  0
LINE
  8
ADD_LINE
  6
DOT
 62
    7
 10
48.897418460330442
 20
22.837599161508919
 11
127.16582014754013
 21
22.837599161508919
  0
LINE
  8
ADD_LINE
  6
DOT
 62
    7
 10
205.20021180848818
 20
22.837599161508919
 11
328.84752428209464
 21
22.837599161508919
  0
LINE
  8
_0-1_
  6
CONTINUOUS
 62
    7
 10
263.07722761824328
 20
18.380405322925469
 11
263.07722761824328
 21
11.080383094581407
  0
LINE
  8
ADD_LINE
  6
DOT
 62
    7
 10
214.60807181693414
 20
15.584670917407891
 11
273.05273932379646
 21
15.584670917407891
  0
LINE
  8
ADD_LINE
  6
DOT
 62
    7
 10
328.84752428209464
 20
22.837599161508919
 11
403.85074099978885
 21
22.837599161508919
  0
LINE
  8
_0-1_
  6
CONTINUOUS
 62
    4
 10
18.118833593420078
 20
22.111630826383021
 11
213.43723606418919
 21
22.111630826383021
  0
LINE
  8
_0-1_
  6
CONTINUOUS
 62
    4
 10
18.118833593420078
 20
18.46162899120435
 11
213.43723606418919
 21
18.46162899120435
  0
LINE
  8
_0-1_
  6
CONTINUOUS
 62
    4
 10
18.118833593420078
 20
14.811651900007917
 11
213.43723606418919
 21
14.811651900007917
  0
LINE
  8
ADD_LINE
  6
DOT
 62
    4
 10
311.24967832823057
 20
19.812034916233358
 11
345.00828923405828
 21
19.812034916233358
  0
TEXT
  8
_0-1_
 62
    7
 10
9.3539285917539701
 20
22.597052084433074
 40
2
 41
1
 50
0
  1
特記
  0
TEXT
  8
_0-1_
 62
    7
 10
213.43607062262458
 20
22.58332845327017
 40
2
 41
1
 50
0
  1
図面名
  0
TEXT
  8
_0-1_
 62
    7
 10
213.76429789775131
 20
15.247170731828021
 40
2
 41
1
 50
0
  1
SCALE
  0
TEXT
  8
_0-1_
 62
    7
 10
263.93103769663219
 20
15.162648381413646
 40
2
 41
1
 50
0
  1
DATE
  0
TEXT
  8
_0-1_
 62
    7
 10
291.17833152977198
 20
22.653281237628008
 40
2
 41
1
 50
0
  1
担当
  0
TEXT
  8
_0-1_
 62
    7
 10
395.47913834855365
 20
22.372781908189921
 40
2.5
 41
1
 50
0
  1
NO
  0
TEXT
  8
_0-1_
 62
    7
 10
310.64144402581292
 20
19.57870689598289
 40
3
 41
1
 50
0
  1
株式会社
  0
TEXT
  8
_0-1_
 62
    3
 10
328.38746106946792
 20
19.490271903373099
 40
5
 41
1
 50
0
  1
神　清
  0
TEXT
  8
_0-1_
 62
    7
 10
223.82205860034838
 20
12.751538302447358
 40
3
 41
1
 50
0
  1
1/5
  0
LINE
  8
ADD_LINE
  6
DOT
 62
    4
 10
181.3664636905927
 20
196.2899922049495
 11
181.3664636905927
 21
178.62417786668709
  0
LINE
  8
ADD_LINE
  6
DOT
 62
    4
 10
235.36646373784706
 20
196.28999585815902
 11
235.36646373784706
 21
177.22650731760223
  0
TEXT
  8
_1-1_
 62
    7
 10
398.33609833588474
 20
17.817802944698855
 40
3
 41
1
 50
0
  1
19
  0
TEXT
  8
_0-1_
 62
    7
 10
223.13368431297511
 20
20.065472061569636
 40
3
 41
1
 50
0
  1
Ｎｏｖｕｍ　棟　2
  0
TEXT
  8
_0-1_
 62
    7
 10
310.75286205394855
 20
13.37992797026763
 40
3
 41
1
 50
0
  1
〒475－0807　半田市八軒町２８番地
  0
ARC
  8
_1-0_
  6
CONTINUOUS
 62
    7
 10
109.40226547265911
 20
134.07792316485629
 40
20.129313082308386
 50
109.03541521344917
 51
121.81558227539062
  0
LINE
  8
_1-0_
  6
CONTINUOUS
 62
    7
 10
104.17631336330828
 20
140.25801349149154
 11
102.36723133205828
 21
139.64593397423013
  0
LINE
  8
_1-0_
  6
CONTINUOUS
 62
    7
 10
197.95234403264953
 20
173.80466744524998
 11
196.72125668309297
 21
176.54043635625084
  0
LINE
  8
_1-0_
  6
CONTINUOUS
 62
    7
 10
196.72125668309297
 20
176.54043635625084
 11
201.09849188949079
 21
178.51018106433781
  0
LINE
  8
_1-0_
  6
CONTINUOUS
 62
    7
 10
201.09849188949079
 20
178.51018106433781
 11
202.32957923904735
 21
175.77441215333698
  0
LINE
  8
_1-0_
  6
CONTINUOUS
 62
    7
 10
202.32957923904735
 20
175.77441215333698
 11
197.95234403264953
 21
173.80466744524998
  0
LINE
  8
_1-0_
  6
CONTINUOUS
 62
    7
 10
197.95234403264953
 20
173.80466744524998
 11
201.09849188949079
 21
178.51018106433781
  0
LINE
  8
_1-0_
  6
CONTINUOUS
 62
    7
 10
63.370770958721096
 20
145.58441548552659
 11
59.737277999208914
 21
145.58441548552659
  0
LINE
  8
_1-0_
  6
CONTINUOUS
 62
    7
 10
222.15386397300006
 20
173.80466744524998
 11
223.38497606653891
 21
176.54043635625084
  0
LINE
  8
_1-0_
  6
CONTINUOUS
 62
    7
 10
223.38497606653891
 20
176.54043635625084
 11
219.00771611615886
 21
178.51018106433781
  0
LINE
  8
_1-0_
  6
CONTINUOUS
 62
    7
 10
219.00771611615886
 20
178.51018106433781
 11
217.77665351058454
 21
175.77441215333698
  0
LINE
  8
_1-0_
  6
CONTINUOUS
 62
    7
 10
217.77665351058454
 20
175.77441215333698
 11
222.15386397300006
 21
173.80466744524998
  0
LINE
  8
_1-0_
  6
CONTINUOUS
 62
    7
 10
222.15386397300006
 20
173.80466744524998
 11
219.00771611615886
 21
178.51018106433781
  0
LINE
  8
_1-0_
  6
CONTINUOUS
 62
    7
 10
27.883990843645051
 20
92.668209331863153
 11
210.05311637481594
 21
174.64432973938005
  0
LINE
  8
_1-0_
  6
CONTINUOUS
 62
    7
 10
392.22222334800006
 20
92.668209331863153
 11
210.05311637481594
 21
174.64432973938005
  0
LINE
  8
_1-0_
  6
CONTINUOUS
 62
    7
 10
27.883990843645051
 20
95.300016401383857
 11
210.05309163083365
 21
177.27612443690961
  0
LINE
  8
_1-0_
  6
CONTINUOUS
 62
    7
 10
392.22222334800006
 20
95.300016401383857
 11
210.05309163083365
 21
177.27612443690961
  0
LINE
  8
_1-0_
  6
DASHED1
 62
    3
 10
27.883990843645051
 20
95.957971261761799
 11
210.05311637481594
 21
177.9340916692787
  0
LINE
  8
_1-0_
  6
DASHED1
 62
    3
 10
392.22222334800006
 20
95.957971261761799
 11
210.05311637481594
 21
177.9340916692787
  0
LINE
  8
_1-0_
  6
CONTINUOUS
 62
    7
 10
27.883990843645051
 20
79.509186356250837
 11
210.05311637481594
 21
161.48530676376771
  0
LINE
  8
_1-0_
  6
CONTINUOUS
 62
    7
 10
392.22222334800006
 20
79.509186356250837
 11
210.05311637481594
 21
161.48530676376771
  0
LINE
  8
_1-0_
  6
CONTINUOUS
 62
    7
 10
223.38497606653891
 20
176.54043635625084
 11
219.00771611615886
 21
178.51018106433781
  0
LINE
  8
_1-0_
  6
CONTINUOUS
 62
    7
 10
219.00771611615886
 20
178.51018106433781
 11
217.77665351058454
 21
175.77441215333698
  0
LINE
  8
_1-0_
  6
CONTINUOUS
 62
    7
 10
198.05310152842657
 20
137.48530181497125
 11
222.05310647722303
 21
137.48530181497125
  0
LINE
  8
_1-0_
  6
CONTINUOUS
 62
    7
 10
198.05310152842657
 20
156.08530379448985
 11
198.05310152842657
 21
137.48530181497125
  0
LINE
  8
_1-0_
  6
CONTINUOUS
 62
    7
 10
222.05310647722303
 20
156.08530379448985
 11
222.05310647722303
 21
137.48530181497125
  0
LINE
  8
_1-0_
  6
CONTINUOUS
 62
    7
 10
198.05310152842657
 20
156.08530379448985
 11
222.05310647722303
 21
137.48530181497125
  0
LINE
  8
_1-0_
  6
CONTINUOUS
 62
    7
 10
222.05310647722303
 20
156.08530379448985
 11
198.05310152842657
 21
137.48530181497125
  0
LINE
  8
_1-0_
  6
CONTINUOUS
 62
    7
 10
392.22222334800006
 20
97.27388098251771
 11
224.05311307561828
 21
172.94998555388597
  0
LINE
  8
_1-0_
  6
CONTINUOUS
 62
    7
 10
392.22222334800006
 20
96.615913750148621
 11
224.05311307561828
 21
172.29200594952573
  0
LINE
  8
_1-0_
  6
CONTINUOUS
 62
    7
 10
210.05311637481594
 20
178.59200941368326
 11
210.05309163083365
 21
178.59200941368326
  0
LINE
  8
_1-0_
  6
CONTINUOUS
 62
    2
 10
224.05311307561828
 20
172.29200594952573
 11
210.05309163083365
 21
178.59200941368326
  0
LINE
  8
_1-0_
  6
CONTINUOUS
 62
    2
 10
224.05311307561828
 20
172.94998555388597
 11
224.05311307561828
 21
172.29200594952573
  0
LINE
  8
_1-0_
  6
CONTINUOUS
 62
    7
 10
27.883990843645051
 20
97.273868610526563
 11
196.05309493003131
 21
172.94998555388597
  0
LINE
  8
_1-0_
  6
CONTINUOUS
 62
    7
 10
27.883990843645051
 20
96.615913750148621
 11
196.05309493003131
 21
172.29201832151688
  0
LINE
  8
_1-0_
  6
CONTINUOUS
 62
    2
 10
196.05310730202245
 20
172.29201832151688
 11
210.05311637481594
 21
178.5920217856744
  0
LINE
  8
_1-0_
  6
CONTINUOUS
 62
    2
 10
196.05310730202245
 20
172.94998555388597
 11
196.05310730202245
 21
172.29201832151688
  0
LINE
  8
_1-0_
  6
CONTINUOUS
 62
    7
 10
192.45591376449079
 20
246.26503170966089
 11
188.45591293969136
 21
246.26503170966089
  0
LINE
  8
_1-0_
  6
CONTINUOUS
 62
    7
 10
193.01491743979693
 20
230.54166613216933
 11
189.0149166149975
 21
230.54166613216933
  0
LINE
  8
_1-0_
  6
CONTINUOUS
 62
    7
 10
193.58338568831891
 20
218.91201921230027
 11
189.58338486351948
 21
218.91201921230027
  0
LINE
  8
_1-0_
  6
CONTINUOUS
 62
    7
 10
232.70125859662761
 20
229.05069273689907
 11
236.70124704943589
 21
229.05069273689907
  0
LINE
  8
_1-0_
  6
CONTINUOUS
 62
    7
 10
235.96105556400511
 20
206.33561804306458
 11
239.96104401681339
 21
206.33561804306458
  0
LINE
  8
_1-0_
  6
CONTINUOUS
 62
    7
 10
180.0531040028248
 20
120.42843354533443
 11
240.05316586278047
 21
120.42843354533443
  0
LINE
  8
_1-0_
  6
CONTINUOUS
 62
    7
 10
180.0531040028248
 20
141.54395824972633
 11
180.0531040028248
 21
120.42843354533443
  0
LINE
  8
_1-0_
  6
CONTINUOUS
 62
    7
 10
240.05316586278047
 20
141.54395824972633
 11
240.05316586278047
 21
120.42843354533443
  0
LINE
  8
_1-0_
  6
CONTINUOUS
 62
    7
 10
70.856963816618077
 20
125.01624004079474
 11
63.370770958721096
 21
145.58441548552659
  0
LINE
  8
ADD_LINE
  6
DOT
 62
    7
 10
47.620508672509118
 20
148.42253787916044
 11
47.620508672509118
 21
137.65660440418156
  0
LINE
  8
ADD_LINE
  6
DOT
 62
    4
 10
157.87336536526146
 20
159.05901083893664
 11
159.10445271481802
 21
156.32324192793578
  0
LINE
  8
ADD_LINE
  6
DOT
 62
    4
 10
114.64823884103214
 20
139.60784061353544
 11
115.8793261905887
 21
136.87207170253461
  0
LINE
  8
ADD_LINE
  6
DOT
 62
    4
 10
154.03060017575552
 20
167.59854264980024
 11
161.28406350847303
 21
151.47963214383529
  0
LINE
  8
ADD_LINE
  6
DOT
 62
    4
 10
110.8054736515262
 20
148.14737242439904
 11
118.05892461225255
 21
132.02846191843409
  0
LINE
  8
ADD_LINE
  6
DOT
 62
    4
 10
67.580340941301301
 20
128.69620219899787
 11
74.833798088023286
 21
112.57729169303292
  0
LINE
  8
ADD_LINE
  6
DOT
 62
    4
 10
24.355212870573155
 20
109.24501960160555
 11
31.608668470796147
 21
93.126121467631748
  0
LINE
  8
_1-0_
  6
CONTINUOUS
 62
    7
 10
154.72721750842021
 20
154.3534972198488
 11
153.49613015886365
 21
157.08926613084964
  0
LINE
  8
_1-0_
  6
CONTINUOUS
 62
    7
 10
153.49613015886365
 20
157.08926613084964
 11
157.87336536526146
 21
159.05901083893664
  0
LINE
  8
_1-0_
  6
CONTINUOUS
 62
    7
 10
157.87336536526146
 20
159.05901083893664
 11
159.10445271481802
 21
156.32324192793578
  0
LINE
  8
_1-0_
  6
CONTINUOUS
 62
    7
 10
159.10445271481802
 20
156.32324192793578
 11
154.72721750842021
 21
154.3534972198488
  0
LINE
  8
_1-0_
  6
CONTINUOUS
 62
    7
 10
154.72721750842021
 20
154.3534972198488
 11
157.87336536526146
 21
159.05901083893664
  0
LINE
  8
_1-0_
  6
CONTINUOUS
 62
    7
 10
111.50209098419089
 20
134.90232699444761
 11
110.27100363463433
 21
137.63809590544847
  0
LINE
  8
_1-0_
  6
CONTINUOUS
 62
    7
 10
110.27100363463433
 20
137.63809590544847
 11
114.64823884103214
 21
139.60784061353544
  0
LINE
  8
_1-0_
  6
CONTINUOUS
 62
    7
 10
114.64823884103214
 20
139.60784061353544
 11
115.8793261905887
 21
136.87207170253461
  0
LINE
  8
_1-0_
  6
CONTINUOUS
 62
    7
 10
115.8793261905887
 20
136.87207170253461
 11
111.50209098419089
 21
134.90232699444761
  0
LINE
  8
_1-0_
  6
CONTINUOUS
 62
    7
 10
111.50209098419089
 20
134.90232699444761
 11
114.64823884103214
 21
139.60784061353544
  0
LINE
  8
_1-0_
  6
CONTINUOUS
 62
    7
 10
68.277119109850787
 20
115.45079798130362
 11
67.046031760294227
 21
118.18656689230446
  0
LINE
  8
_1-0_
  6
CONTINUOUS
 62
    7
 10
67.046031760294227
 20
118.18656689230446
 11
71.423266966691926
 21
120.15631160039146
  0
LINE
  8
_1-0_
  6
CONTINUOUS
 62
    7
 10
71.423266966691926
 20
120.15631160039146
 11
72.6543543162486
 21
117.4205426893906
  0
LINE
  8
_1-0_
  6
CONTINUOUS
 62
    7
 10
72.6543543162486
 20
117.4205426893906
 11
68.277119109850787
 21
115.45079798130362
  0
LINE
  8
_1-0_
  6
CONTINUOUS
 62
    7
 10
68.277119109850787
 20
115.45079798130362
 11
71.423266966691926
 21
120.15631160039146
  0
LINE
  8
_1-0_
  6
CONTINUOUS
 62
    7
 10
25.052040527087115
 20
95.999504035991123
 11
23.820953177530555
 21
98.735272946991955
  0
LINE
  8
_1-0_
  6
CONTINUOUS
 62
    7
 10
23.820953177530555
 20
98.735272946991955
 11
28.198186837429375
 21
100.70501765507896
  0
LINE
  8
_1-0_
  6
CONTINUOUS
 62
    7
 10
28.198186837429375
 20
100.70501765507896
 11
29.429274186986049
 21
97.969248744078101
  0
LINE
  8
_1-0_
  6
CONTINUOUS
 62
    7
 10
29.429274186986049
 20
97.969248744078101
 11
25.052040527087115
 21
95.999504035991123
  0
LINE
  8
_1-0_
  6
CONTINUOUS
 62
    7
 10
25.052040527087115
 20
95.999504035991123
 11
28.198186837429375
 21
100.70501765507896
  0
LINE
  8
_1-0_
  6
CONTINUOUS
 62
    7
 10
113.15086912634672
 20
137.3544556367618
 11
142.37628350556975
 21
57.058284603057203
  0
LINE
  8
_1-0_
  6
CONTINUOUS
 62
    7
 10
142.37628350556975
 20
57.058284603057203
 11
148.46434238964912
 21
57.058284603057203
  0
LINE
  8
_1-0_
  6
CONTINUOUS
 62
    7
 10
132.18512799458995
 20
85.058278004661929
 11
148.46434238964912
 21
85.058278004661929
  0
LINE
  8
_1-0_
  6
CONTINUOUS
 62
    7
 10
134.73291687233495
 20
78.05827965426073
 11
148.46434238964912
 21
78.05827965426073
  0
LINE
  8
_1-0_
  6
CONTINUOUS
 62
    7
 10
137.28070575007985
 20
71.058281303859573
 11
148.46434238964912
 21
71.058281303859573
  0
LINE
  8
_1-0_
  6
CONTINUOUS
 62
    7
 10
139.8284946278248
 20
64.058282953458374
 11
148.46434238964912
 21
64.058282953458374
  0
LINE
  8
ADD_LINE
  6
DOT
 62
    4
 10
149.74057513484547
 20
177.13204022818917
 11
163.33288998387422
 21
146.92664043141974
  0
LINE
  8
ADD_LINE
  6
DOT
 62
    4
 10
106.51543623862506
 20
157.680870002788
 11
120.10776345964496
 21
127.47547020601857
  0
LINE
  8
ADD_LINE
  6
DOT
 62
    4
 10
63.290309714395789
 20
138.2296997773868
 11
76.882636935415576
 21
108.02429998061737
  0
LINE
  8
ADD_LINE
  6
DOT
 62
    4
 10
20.065167725177503
 20
118.77851717999448
 11
33.65750113219292
 21
88.573123569220627
  0
LINE
  8
_1-0_
  6
CONTINUOUS
 62
    7
 10
21.359475949417401
 20
102.62135247745016
 11
22.106546261917401
 21
102.21899058186315
  0
LINE
  8
_1-0_
  6
CONTINUOUS
 62
    7
 10
29.213884007377601
 20
104.97683112504305
 11
28.06446417128177
 21
104.63213508012117
  0
LINE
  8
_1-0_
  6
CONTINUOUS
 62
    7
 10
21.359475949417401
 20
102.62135247745016
 11
20.401624024005628
 21
102.33409958735302
  0
LINE
  8
_1-0_
  6
CONTINUOUS
 62
    7
 10
28.06446417128177
 20
104.63213508012117
 11
28.236806007747191
 21
104.05741897607768
  0
LINE
  8
_1-0_
  6
CONTINUOUS
 62
    7
 10
20.401624024005628
 20
102.33409958735302
 11
20.573978232462196
 21
101.75938348330953
  0
LINE
  8
_1-0_
  6
CONTINUOUS
 62
    7
 10
28.236806007747191
 20
104.05741897607768
 11
22.106546261917401
 21
102.21899058186315
  0
LINE
  8
_1-0_
  6
CONTINUOUS
 62
    7
 10
29.213884007377601
 20
104.97683112504305
 11
30.879958193135735
 21
99.421275111265601
  0
LINE
  8
_1-0_
  6
CONTINUOUS
 62
    7
 10
29.00185282336156
 20
99.193754194352607
 11
28.198168279442712
 21
100.70503002707008
  0
LINE
  8
_1-0_
  6
CONTINUOUS
 62
    7
 10
29.469922363849378
 20
98.998412826373283
 11
30.879958193135735
 21
99.421275111265601
  0
LINE
  8
ADD_LINE
  6
DOT
 62
    4
 10
71.42326078069641
 20
120.15631160039146
 11
13.418118311032458
 21
100.53129015560683
  0
LINE
  8
_1-0_
  6
CONTINUOUS
 62
    7
 10
73.507211338920683
 20
120.86137900299914
 11
19.134880596007406
 21
102.46546538919002
  0
LINE
  8
_1-0_
  6
CONTINUOUS
 62
    7
 10
64.521891943597666
 20
121.83295146657599
 11
65.282534330369117
 21
121.45689242413511
  0
LINE
  8
_1-0_
  6
CONTINUOUS
 62
    7
 10
72.289362019875057
 20
124.4609479628281
 11
71.152660590662663
 21
124.07636461849745
  0
LINE
  8
_1-0_
  6
CONTINUOUS
 62
    7
 10
64.521891943597666
 20
121.83295146657599
 11
63.574642814585786
 21
121.51246740829896
  0
LINE
  8
_1-0_
  6
CONTINUOUS
 62
    7
 10
71.152660590662663
 20
124.07636461849745
 11
71.34495844882349
 21
123.50800771789568
  0
LINE
  8
_1-0_
  6
CONTINUOUS
 62
    7
 10
63.574642814585786
 20
121.51246740829896
 11
63.76692830075558
 21
120.94412287968834
  0
LINE
  8
_1-0_
  6
CONTINUOUS
 62
    7
 10
63.76692830075558
 20
120.94412287968834
 11
19.435482864535629
 21
105.94534770681037
  0
LINE
  8
_1-0_
  6
CONTINUOUS
 62
    7
 10
71.34495844882349
 20
123.50800771789568
 11
65.282534330369117
 21
121.45689242413511
  0
LINE
  8
_1-0_
  6
CONTINUOUS
 62
    7
 10
72.289362019875057
 20
124.4609479628281
 11
74.14819182746578
 21
118.9668807449755
  0
LINE
  8
_1-0_
  6
CONTINUOUS
 62
    7
 10
72.279155127191416
 20
118.67398622692227
 11
71.42326078069641
 21
120.15631160039146
  0
LINE
  8
_1-0_
  6
CONTINUOUS
 62
    7
 10
72.753757078996614
 20
118.49509960714821
 11
74.14819182746578
 21
118.9668807449755
  0
LINE
  8
_1-0_
  6
CONTINUOUS
 62
    7
 10
17.726143825789904
 20
101.35542560086654
 11
15.917061794539904
 21
100.74335845559627
  0
LINE
  8
_1-0_
  6
CONTINUOUS
 62
    7
 10
116.73230074717662
 20
140.31267294831164
 11
62.359960725269957
 21
121.91674696251138
  0
LINE
  8
_1-0_
  6
CONTINUOUS
 62
    7
 10
107.74696897986234
 20
141.28424541188849
 11
108.50762373862506
 21
140.90818636944761
  0
LINE
  8
_1-0_
  6
CONTINUOUS
 62
    7
 10
115.514451428131
 20
143.91222953614948
 11
114.37773762692746
 21
143.5276461918188
  0
LINE
  8
_1-0_
  6
CONTINUOUS
 62
    7
 10
107.74696897986234
 20
141.28424541188849
 11
106.79971985085058
 21
140.96374898162034
  0
LINE
  8
_1-0_
  6
CONTINUOUS
 62
    7
 10
114.37773762692746
 20
143.5276461918188
 11
114.57002311309714
 21
142.95928929121703
  0
LINE
  8
_1-0_
  6
CONTINUOUS
 62
    7
 10
106.79971985085058
 20
140.96374898162034
 11
106.99200533702037
 21
140.39540445300969
  0
LINE
  8
_1-0_
  6
CONTINUOUS
 62
    7
 10
106.99200533702037
 20
140.39540445300969
 11
62.66056299379818
 21
125.39664165212287
  0
LINE
  8
_1-0_
  6
CONTINUOUS
 62
    7
 10
114.57002311309714
 20
142.95928929121703
 11
108.50762373862506
 21
140.90818636944761
  0
LINE
  8
_1-0_
  6
CONTINUOUS
 62
    7
 10
115.514451428131
 20
143.91222953614948
 11
117.37326886373057
 21
138.41816231829685
  0
LINE
  8
_1-0_
  6
CONTINUOUS
 62
    7
 10
115.50423216345609
 20
138.12526780024365
 11
114.6483378169612
 21
139.60759317371281
  0
LINE
  8
_1-0_
  6
CONTINUOUS
 62
    7
 10
115.97884648725255
 20
137.94638118046959
 11
117.37326886373057
 21
138.41816231829685
  0
LINE
  8
_1-0_
  6
CONTINUOUS
 62
    7
 10
60.951236327043489
 20
120.80671954617904
 11
59.142141923802455
 21
120.19464002891763
  0
LINE
  8
_1-0_
  6
CONTINUOUS
 62
    7
 10
159.95736541145021
 20
159.76396689362414
 11
105.58503776153464
 21
141.36804090782388
  0
LINE
  8
_1-0_
  6
CONTINUOUS
 62
    7
 10
150.97205838811828
 20
160.73553935720099
 11
151.7326884028987
 21
160.35948031476011
  0
LINE
  8
_1-0_
  6
CONTINUOUS
 62
    7
 10
158.73951609240459
 20
163.36352348146198
 11
157.60282703518334
 21
162.9789401371313
  0
LINE
  8
_1-0_
  6
CONTINUOUS
 62
    7
 10
150.97205838811828
 20
160.73553935720099
 11
150.02480925910646
 21
160.41505529892396
  0
LINE
  8
_1-0_
  6
CONTINUOUS
 62
    7
 10
157.60282703518334
 20
162.9789401371313
 11
157.79511252135308
 21
162.41059560852068
  0
LINE
  8
_1-0_
  6
CONTINUOUS
 62
    7
 10
150.02480925910646
 20
160.41505529892396
 11
150.21709474527626
 21
159.84669839832219
  0
LINE
  8
_1-0_
  6
CONTINUOUS
 62
    7
 10
150.21709474527626
 20
159.84669839832219
 11
105.88565240205412
 21
144.84793559743537
  0
LINE
  8
_1-0_
  6
CONTINUOUS
 62
    7
 10
157.79511252135308
 20
162.41059560852068
 11
151.7326884028987
 21
160.35948031476011
  0
LINE
  8
_1-0_
  6
CONTINUOUS
 62
    7
 10
158.73951609240459
 20
163.36352348146198
 11
160.59835827198651
 21
157.86945626360935
  0
LINE
  8
_1-0_
  6
CONTINUOUS
 62
    7
 10
158.72932157171203
 20
157.57656174555615
 11
157.87342722521709
 21
159.05889949101646
  0
LINE
  8
_1-0_
  6
CONTINUOUS
 62
    7
 10
159.20391115152626
 20
157.39767512578209
 11
160.59835827198651
 21
157.86945626360935
  0
LINE
  8
_1-0_
  6
CONTINUOUS
 62
    7
 10
203.18245481970615
 20
179.2152484669455
 11
148.81012716979058
 21
160.81933485313638
  0
LINE
  8
_1-0_
  6
CONTINUOUS
 62
    7
 10
194.19712305239193
 20
180.18682093052237
 11
194.95777781115464
 21
179.81076188808149
  0
LINE
  8
_1-0_
  6
CONTINUOUS
 62
    7
 10
201.96460550066053
 20
182.81480505478333
 11
200.82789169945698
 21
182.4302340824438
  0
LINE
  8
_1-0_
  6
CONTINUOUS
 62
    7
 10
200.82789169945698
 20
182.4302340824438
 11
201.02020192960902
 21
181.86188955383318
  0
LINE
  8
_1-0_
  6
CONTINUOUS
 62
    7
 10
193.24987392338011
 20
179.86633687224534
 11
193.4421594095499
 21
179.29799234363469
  0
LINE
  8
_1-0_
  6
CONTINUOUS
 62
    7
 10
193.4421594095499
 20
179.29799234363469
 11
149.11071706632777
 21
164.29921717075675
  0
LINE
  8
_1-0_
  6
CONTINUOUS
 62
    7
 10
201.02020192960902
 20
181.86188955383318
 11
194.95777781115464
 21
179.81076188808149
  0
LINE
  8
_1-0_
  6
CONTINUOUS
 62
    7
 10
201.95438623598568
 20
177.02785569086865
 11
201.09849188949079
 21
178.51019343632896
  0
LINE
  8
_1-0_
  6
CONTINUOUS
 62
    7
 10
202.42900055978214
 20
176.84895669910344
 11
203.82342293626022
 21
177.32075020892185
  0
LINE
  8
_1-0_
  6
CONTINUOUS
 62
    7
 10
147.40140277156422
 20
159.70929506481289
 11
145.59229599633198
 21
159.09722791954263
  0
LINE
  8
_1-0_
  6
CONTINUOUS
 62
    7
 10
28.198261069376258
 20
100.70485681919425
 11
14.316974396732576
 21
96.00837475363258
  0
LINE
  8
_1-0_
  6
CONTINUOUS
 62
    7
 10
20.573978232462196
 20
101.75938348330953
 11
12.196074886993301
 21
99.246916640245757
  0
LINE
  8
_1-0_
  6
CONTINUOUS
 62
    7
 10
193.791383603226
 20
180.04955368891552
 11
193.24987392338011
 21
179.86633687224534
  0
LINE
  8
_1-0_
  6
CONTINUOUS
 62
    7
 10
194.19712305239193
 20
180.18682093052237
 11
193.83280502953511
 21
180.06355878287667
  0
LINE
  8
_1-0_
  6
CONTINUOUS
 62
    7
 10
193.83280502953511
 20
180.06355878287667
 11
193.791383603226
 21
180.04955368891552
  0
LINE
  8
ADD_LINE
  6
DOT
 62
    4
 10
210.05309163083365
 20
146.78530280473055
 11
210.05309163083365
 21
259.65063533086021
  0
LINE
  8
_1-0_
  6
CONTINUOUS
 62
    7
 10
265.378953381256
 20
154.35337349993748
 11
266.61001598683032
 21
157.08914241093834
  0
LINE
  8
_1-0_
  6
CONTINUOUS
 62
    7
 10
266.61001598683032
 20
157.08914241093834
 11
262.23280552441474
 21
159.05888711902531
  0
LINE
  8
_1-0_
  6
CONTINUOUS
 62
    7
 10
262.23280552441474
 20
159.05888711902531
 11
261.00169343087589
 21
156.32311820802448
  0
LINE
  8
_1-0_
  6
CONTINUOUS
 62
    7
 10
261.00169343087589
 20
156.32311820802448
 11
265.378953381256
 21
154.35337349993748
  0
LINE
  8
_1-0_
  6
CONTINUOUS
 62
    7
 10
265.378953381256
 20
154.35337349993748
 11
262.23280552441474
 21
159.05888711902531
  0
LINE
  8
_1-0_
  6
CONTINUOUS
 62
    7
 10
308.60414176544094
 20
134.90232699444761
 11
309.83520437101527
 21
137.63809590544847
  0
LINE
  8
_1-0_
  6
CONTINUOUS
 62
    7
 10
309.83520437101527
 20
137.63809590544847
 11
305.45799390859975
 21
139.60784061353544
  0
LINE
  8
_1-0_
  6
CONTINUOUS
 62
    7
 10
305.45799390859975
 20
139.60784061353544
 11
304.22688181506089
 21
136.87207170253461
  0
LINE
  8
_1-0_
  6
CONTINUOUS
 62
    7
 10
304.22688181506089
 20
136.87207170253461
 11
308.60414176544094
 21
134.90232699444761
  0
LINE
  8
_1-0_
  6
CONTINUOUS
 62
    7
 10
308.60414176544094
 20
134.90232699444761
 11
305.45799390859975
 21
139.60784061353544
  0
LINE
  8
_1-0_
  6
CONTINUOUS
 62
    7
 10
351.82910745378553
 20
115.45079798130362
 11
353.06017005935985
 21
118.18656689230446
  0
LINE
  8
_1-0_
  6
CONTINUOUS
 62
    7
 10
353.06017005935985
 20
118.18656689230446
 11
348.68295959694433
 21
120.15631160039146
  0
LINE
  8
_1-0_
  6
CONTINUOUS
 62
    7
 10
348.68295959694433
 20
120.15631160039146
 11
347.45184750340547
 21
117.4205426893906
  0
LINE
  8
_1-0_
  6
CONTINUOUS
 62
    7
 10
347.45184750340547
 20
117.4205426893906
 11
351.82910745378553
 21
115.45079798130362
  0
LINE
  8
_1-0_
  6
CONTINUOUS
 62
    7
 10
351.82910745378553
 20
115.45079798130362
 11
348.68295959694433
 21
120.15631160039146
  0
LINE
  8
_1-0_
  6
CONTINUOUS
 62
    7
 10
395.05419686204147
 20
95.999516407982242
 11
396.28525946761579
 21
98.735285318983102
  0
LINE
  8
_1-0_
  6
CONTINUOUS
 62
    7
 10
396.28525946761579
 20
98.735285318983102
 11
391.90804900520027
 21
100.70503002707008
  0
LINE
  8
_1-0_
  6
CONTINUOUS
 62
    7
 10
391.90804900520027
 20
100.70503002707008
 11
390.67693691166141
 21
97.969261116069248
  0
LINE
  8
_1-0_
  6
CONTINUOUS
 62
    7
 10
390.67693691166141
 20
97.969261116069248
 11
395.05419686204147
 21
95.999516407982242
  0
LINE
  8
_1-0_
  6
CONTINUOUS
 62
    7
 10
395.05419686204147
 20
95.999516407982242
 11
391.90804900520027
 21
100.70503002707008
  0
ARC
  8
_1-0_
  6
CONTINUOUS
 62
    7
 10
29.355011310217606
 20
99.381561019732658
 40
0.4000000051549963
 50
208.00352478027344
 51
286.693603515625
  0
ARC
  8
_1-0_
  6
CONTINUOUS
 62
    7
 10
17.704529957282602
 20
101.55925415476224
 40
0.2000000025774981
 50
288.69233703613281
 51
314.09980773925781
  0
ARC
  8
_1-0_
  6
CONTINUOUS
 62
    7
 10
72.625558506889433
 20
118.87400420754938
 40
0.4000000051549963
 50
210.00225830078122
 51
288.69233703613281
  0
ARC
  8
_1-0_
  6
CONTINUOUS
 62
    7
 10
24.506440357673227
 20
94.540178194035889
 40
9.5741179182722771
 50
124.12844848632812
 51
133.83956909179687
  0
ARC
  8
_1-0_
  6
CONTINUOUS
 62
    7
 10
17.597957625673644
 20
101.73433020126771
 40
0.4000000051549963
 50
288.69233703613281
 51
313.83956909179687
  0
ARC
  8
_1-0_
  6
CONTINUOUS
 62
    7
 10
25.77236723425699
 20
86.839516869869897
 40
20.129313082308386
 50
108.34925842285153
 51
121.81558227539061
  0
ARC
  8
_1-0_
  6
CONTINUOUS
 62
    7
 10
15.371320893726988
 20
103.60448038074406
 40
0.4000000051549963
 50
121.8155822753906
 51
198.69233703613278
  0
ARC
  8
_1-0_
  6
CONTINUOUS
 62
    7
 10
60.929610086545267
 20
121.0105357280836
 40
0.2000000025774981
 50
288.69233703613281
 51
314.09980773925781
  0
ARC
  8
_1-0_
  6
CONTINUOUS
 62
    7
 10
115.85064791514537
 20
138.32528578087076
 40
0.4000000051549963
 50
210.00225830078122
 51
288.69233703613281
  0
ARC
  8
_1-0_
  6
CONTINUOUS
 62
    7
 10
67.731532858927039
 20
113.99147213934839
 40
9.5741179182722771
 50
124.12844848632812
 51
133.83956909179687
  0
ARC
  8
_1-0_
  6
CONTINUOUS
 62
    7
 10
60.823037754936308
 20
121.18561177458909
 40
0.4000000051549963
 50
288.69233703613281
 51
313.83956909179687
  0
ARC
  8
_1-0_
  6
CONTINUOUS
 62
    7
 10
68.997447363519541
 20
106.29079844319128
 40
20.129313082308386
 50
108.34925842285153
 51
121.81558227539061
  0
ARC
  8
_1-0_
  6
CONTINUOUS
 62
    7
 10
58.596413394980573
 20
123.05576195406545
 40
0.4000000051549963
 50
121.8155822753906
 51
198.69233703613278
  0
ARC
  8
_1-0_
  6
CONTINUOUS
 62
    7
 10
104.15468712281006
 20
140.4618296733961
 40
0.2000000025774981
 50
288.69233703613281
 51
314.09980773925781
  0
ARC
  8
_1-0_
  6
CONTINUOUS
 62
    7
 10
159.07571257941896
 20
157.77657972618326
 40
0.4000000051549963
 50
210.00225830078122
 51
288.69233703613281
  0
ARC
  8
_1-0_
  6
CONTINUOUS
 62
    7
 10
110.95660989519183
 20
133.44276608466089
 40
9.5741179182722771
 50
124.12844848632812
 51
133.83956909179687
  0
ARC
  8
_1-0_
  6
CONTINUOUS
 62
    7
 10
104.0481147912011
 20
140.63691809189271
 40
0.4000000051549963
 50
288.69233703613281
 51
313.83956909179687
  0
ARC
  8
_1-0_
  6
CONTINUOUS
 62
    7
 10
112.22253677177537
 20
125.74209238850378
 40
20.129313082308386
 50
108.34925842285153
 51
121.81558227539061
  0
ARC
  8
_1-0_
  6
CONTINUOUS
 62
    7
 10
101.82150280323651
 20
142.50705589937795
 40
0.4000000051549963
 50
121.8155822753906
 51
198.69233703613278
  0
ARC
  8
_1-0_
  6
CONTINUOUS
 62
    7
 10
147.37977653106594
 20
159.9131236187086
 40
0.2000000025774981
 50
288.69233703613281
 51
314.09980773925781
  0
ARC
  8
_1-0_
  6
CONTINUOUS
 62
    7
 10
202.3008019876749
 20
177.22786129950464
 40
0.4000000051549963
 50
210.00225830078122
 51
288.69233703613281
  0
ARC
  8
_1-0_
  6
CONTINUOUS
 62
    7
 10
154.18169930344766
 20
152.89404765798224
 40
9.5741179182722771
 50
124.12844848632812
 51
133.83956909179687
  0
ARC
  8
_1-0_
  6
CONTINUOUS
 62
    7
 10
147.27320419945698
 20
160.08819966521409
 40
0.4000000051549963
 50
288.69233703613281
 51
313.83956909179687
  0
ARC
  8
_1-0_
  6
CONTINUOUS
 62
    7
 10
155.44760143604901
 20
145.19338633381628
 40
20.129313082308386
 50
108.34925842285153
 51
121.81558227539061
  0
ARC
  8
_1-0_
  6
CONTINUOUS
 62
    7
 10
145.04656746751016
 20
161.95834984469045
 40
0.4000000051549963
 50
121.8155822753906
 51
198.69233703613278
  0
TEXT
  8
_1-0_
 62
    7
 10
47.620510115908019
 20
143.88951456043156
 40
3
 41
1
 50
0
  1
桟瓦
  0
TEXT
  8
_1-0_
 62
    7
 10
240.37869604384042
 20
227.39368722064063
 40
3
 41
1
 50
0
  1
棟瓦
  0
TEXT
  8
_1-0_
 62
    7
 10
208.17813080880558
 20
120.92843519493326
 40
3
 41
1
 50
0
  1
300
  0
TEXT
  8
_1-0_
 62
    7
 10
189.14107916976423
 20
116.06288987055615
 40
3
 41
1
 50
0
  1
ゴムアス系ルーフィング２重貼り
  0
TEXT
  8
_1-0_
 62
    7
 10
123.13310913307714
 20
245.10414303778589
 40
3
 41
1
 50
0
  1
パッキン付改良ステンレススクリュウ釘
  0
TEXT
  8
_1-0_
 62
    7
 10
160.87021710591813
 20
229.03092229507052
 40
3
 41
1
 50
0
  1
棟桟木　30ｘ30
  0
TEXT
  8
_1-0_
 62
    7
 10
177.99168077845297
 20
217.50015232832641
 40
3
 41
1
 50
0
  1
棟金具
  0
TEXT
  8
_1-0_
 62
    7
 10
169.33254934171839
 20
83.169891510257372
 40
3
 41
1
 50
0
  1
18ｘ24
  0
TEXT
  8
_1-0_
 62
    7
 10
169.33253944412547
 20
68.382763989670352
 40
3
 41
1
 50
0
  1
ゴムアス系ルーフィング
  0
TEXT
  8
_1-0_
 62
    7
 10
169.33254934171839
 20
55.140551745688114
 40
3
 41
1
 50
0
  1
60ｘ60
  0
TEXT
  8
_1-0_
 62
    7
 10
154.95082722653677
 20
83.169891510257372
 40
3
 41
1
 50
0
  1
瓦桟
  0
TEXT
  8
_1-0_
 62
    7
 10
154.95082681413709
 20
75.665981961059742
 40
3
 41
1
 50
0
  1
流し桟
  0
TEXT
  8
_1-0_
 62
    7
 10
154.95082021574183
 20
68.382763989670352
 40
3
 41
1
 50
0
  1
下葺き材
  0
TEXT
  8
_1-0_
 62
    7
 10
154.95082681413709
 20
61.761670239670352
 40
3
 41
1
 50
0
  1
野地板
  0
TEXT
  8
_1-0_
 62
    7
 10
154.95082722653677
 20
55.140551745688114
 40
3
 41
1
 50
0
  1
垂木
  0
TEXT
  8
_1-0_
 62
    7
 10
169.33254727971985
 20
61.761670239670352
 40
3
 41
1
 50
0
  1
耐水合板　ｔ＝12
  0
POINT
  8
_1-0_
 62
    7
 10
180.0531040028248
 20
120.42843354533443
  0
POINT
  8
_1-0_
 62
    7
 10
240.05316586278047
 20
120.42843354533443
  0
LINE
  8
_1-0_
  6
CONTINUOUS
 62
    2
 10
196.05310730202245
 20
172.94998555388597
 11
210.00856006492103
 21
179.22993867978906
  0
LINE
  8
_1-0_
  6
CONTINUOUS
 62
    2
 10
224.05311307561828
 20
172.94998555388597
 11
210.29932302138826
 21
179.13919148300238
  0
TEXT
  8
_1-0_
 62
    7
 10
241.92516771692954
 20
204.96960175822511
 40
3
 41
1
 50
0
  1
モルタル又は　面戸漆喰
  0
LINE
  8
_1-0_
  6
CONTINUOUS
 62
    7
 10
13.155028510476086
 20
108.90705606205849
 11
9.1258902224680014
 21
107.54386859373687
  0
LINE
  8
_1-0_
  6
CONTINUOUS
 62
    7
 10
12.171382619337692
 20
111.81440249174275
 11
15.917061794539904
 21
100.74335845559627
  0
ARC
  8
_1-0_
  6
CONTINUOUS
 62
    7
 10
12.551049594610504
 20
111.94031115709657
 40
0.4000000051549963
 50
121.8155822753906
 51
198.34702963057637
  0
ARC
  8
_1-0_
  6
CONTINUOUS
 62
    7
 10
22.952095935140505
 20
95.175347646222406
 40
20.129313082308386
 50
109.03541521344917
 51
121.81558227539062
  0
LINE
  8
_1-0_
  6
CONTINUOUS
 62
    7
 10
56.569371936810967
 20
127.79896955975204
 11
16.386869572760816
 21
114.20393266919
  0
ARC
  8
_1-0_
  6
CONTINUOUS
 62
    7
 10
55.776129723873169
 20
131.39159273041793
 40
0.4000000051549963
 50
121.8155822753906
 51
198.34702963057637
  0
ARC
  8
_1-0_
  6
CONTINUOUS
 62
    7
 10
66.17717606440317
 20
114.62662921954379
 40
20.129313082308386
 50
109.03541521344917
 51
121.81558227539062
  0
ARC
  8
_1-0_
  6
CONTINUOUS
 62
    7
 10
152.6273301369327
 20
153.52921711016879
 40
20.129313082308386
 50
109.03728544772233
 51
121.8155822753906
  0
LINE
  8
_1-0_
  6
CONTINUOUS
 62
    7
 10
141.8466168211292
 20
170.16827195569118
 11
145.59229599633198
 21
159.09722791954263
  0
ARC
  8
_1-0_
  6
CONTINUOUS
 62
    7
 10
142.2262837964027
 20
170.29418062104293
 40
0.4000000051549963
 50
121.8155822753906
 51
198.34702963026194
  0
LINE
  8
_1-0_
  6
CONTINUOUS
 62
    7
 10
98.620955394733073
 20
150.71879197743257
 11
102.36723133205828
 21
139.64593397423013
  0
ARC
  8
_1-0_
  6
CONTINUOUS
 62
    7
 10
99.001219132129108
 20
150.84288667573043
 40
0.4000000051549963
 50
121.8155822753906
 51
198.07349822211202
  0
LINE
  8
_1-0_
  6
CONTINUOUS
 62
    7
 10
143.01951653949658
 20
166.70155101546845
 11
102.8370377572827
 21
153.10651218683844
  0
LINE
  8
_1-0_
  6
CONTINUOUS
 62
    7
 10
99.79446201994449
 20
147.25026151033086
 11
59.611949645431423
 21
133.65521440977895
  0
LINE
  8
_1-0_
  6
CONTINUOUS
 62
    7
 10
55.396477963656821
 20
131.26568921276851
 11
59.142141923802455
 21
120.19464002891763
  0
ARC
  8
_1-0_
  6
CONTINUOUS
 62
    7
 10
310.70391778900824
 20
134.07792316485629
 40
20.129313082308386
 50
58.184417724609368
 51
70.96458478655083
  0
LINE
  8
_1-0_
  6
CONTINUOUS
 62
    7
 10
315.92986989835902
 20
140.25801349149154
 11
317.73895192960902
 21
139.64593397423013
  0
LINE
  8
ADD_LINE
  6
DOT
 62
    4
 10
262.23281789640589
 20
159.05901083893664
 11
261.00173054684927
 21
156.32324192793578
  0
LINE
  8
ADD_LINE
  6
DOT
 62
    4
 10
305.45794442063522
 20
139.60784061353544
 11
304.2268570710786
 21
136.87207170253461
  0
LINE
  8
ADD_LINE
  6
DOT
 62
    4
 10
266.07558308591177
 20
167.59854264980024
 11
258.82211975319433
 21
151.47963214383529
  0
LINE
  8
ADD_LINE
  6
DOT
 62
    4
 10
309.3007096101411
 20
148.14737242439904
 11
302.04725864941474
 21
132.02846191843409
  0
LINE
  8
ADD_LINE
  6
DOT
 62
    4
 10
352.525842320366
 20
128.69620219899787
 11
345.27238517364407
 21
112.57729169303292
  0
LINE
  8
ADD_LINE
  6
DOT
 62
    4
 10
395.7509703910942
 20
109.24501960160555
 11
388.49751479087115
 21
93.126121467631748
  0
LINE
  8
ADD_LINE
  6
DOT
 62
    4
 10
270.36560812682183
 20
177.13204022818917
 11
256.77329327779313
 21
146.92664043141974
  0
LINE
  8
ADD_LINE
  6
DOT
 62
    4
 10
313.5907470230423
 20
157.680870002788
 11
299.99841980202245
 21
127.47547020601857
  0
LINE
  8
ADD_LINE
  6
DOT
 62
    4
 10
356.81587354727162
 20
138.2296997773868
 11
343.22354632625172
 21
108.02429998061737
  0
LINE
  8
ADD_LINE
  6
DOT
 62
    4
 10
400.04101553648985
 20
118.77851717999448
 11
386.44868212947443
 21
88.573123569220627
  0
LINE
  8
_1-0_
  6
CONTINUOUS
 62
    7
 10
398.74670731224995
 20
102.62135247745016
 11
397.99963699974995
 21
102.21899058186315
  0
LINE
  8
_1-0_
  6
CONTINUOUS
 62
    7
 10
390.8922992542897
 20
104.97683112504305
 11
392.04171909038553
 21
104.63213508012117
  0
LINE
  8
_1-0_
  6
CONTINUOUS
 62
    7
 10
398.74670731224995
 20
102.62135247745016
 11
399.70455923766173
 21
102.33409958735302
  0
LINE
  8
_1-0_
  6
CONTINUOUS
 62
    7
 10
392.04171909038553
 20
104.63213508012117
 11
391.86937725392016
 21
104.05741897607768
  0
LINE
  8
_1-0_
  6
CONTINUOUS
 62
    7
 10
399.70455923766173
 20
102.33409958735302
 11
399.53220502920522
 21
101.75938348330953
  0
LINE
  8
_1-0_
  6
CONTINUOUS
 62
    7
 10
391.86937725392016
 20
104.05741897607768
 11
397.99963699974995
 21
102.21899058186315
  0
LINE
  8
_1-0_
  6
CONTINUOUS
 62
    7
 10
390.8922992542897
 20
104.97683112504305
 11
389.22622506853162
 21
99.421275111265601
  0
LINE
  8
_1-0_
  6
CONTINUOUS
 62
    7
 10
391.10433043830574
 20
99.193754194352607
 11
391.90801498222464
 21
100.70503002707008
  0
LINE
  8
_1-0_
  6
CONTINUOUS
 62
    7
 10
390.63626089781798
 20
98.998412826373283
 11
389.22622506853162
 21
99.421275111265601
  0
LINE
  8
ADD_LINE
  6
DOT
 62
    4
 10
348.68292248097094
 20
120.15631160039146
 11
406.68806495063484
 21
100.53129015560683
  0
LINE
  8
_1-0_
  6
CONTINUOUS
 62
    7
 10
346.59897192274667
 20
120.86137900299914
 11
400.97130266566001
 21
102.46546538919002
  0
LINE
  8
_1-0_
  6
CONTINUOUS
 62
    7
 10
355.58429131806975
 20
121.83295146657599
 11
354.82364893129818
 21
121.45689242413511
  0
LINE
  8
_1-0_
  6
CONTINUOUS
 62
    7
 10
347.8168212417923
 20
124.4609479628281
 11
348.95352267100469
 21
124.07636461849745
  0
LINE
  8
_1-0_
  6
CONTINUOUS
 62
    7
 10
355.58429131806975
 20
121.83295146657599
 11
356.53154044708157
 21
121.51246740829896
  0
LINE
  8
_1-0_
  6
CONTINUOUS
 62
    7
 10
348.95352267100469
 20
124.07636461849745
 11
348.76122481284381
 21
123.50800771789568
  0
LINE
  8
_1-0_
  6
CONTINUOUS
 62
    7
 10
356.53154044708157
 20
121.51246740829896
 11
356.33925496091183
 21
120.94412287968834
  0
LINE
  8
_1-0_
  6
CONTINUOUS
 62
    7
 10
356.33925496091183
 20
120.94412287968834
 11
400.67070039713172
 21
105.94534770681037
  0
LINE
  8
_1-0_
  6
CONTINUOUS
 62
    7
 10
348.76122481284381
 20
123.50800771789568
 11
354.82364893129818
 21
121.45689242413511
  0
LINE
  8
_1-0_
  6
CONTINUOUS
 62
    7
 10
347.8168212417923
 20
124.4609479628281
 11
345.95799143420152
 21
118.9668807449755
  0
LINE
  8
_1-0_
  6
CONTINUOUS
 62
    7
 10
347.827028134476
 20
118.67398622692227
 11
348.68292248097094
 21
120.15631160039146
  0
LINE
  8
_1-0_
  6
CONTINUOUS
 62
    7
 10
347.35242618267068
 20
118.49509960714821
 11
345.95799143420152
 21
118.9668807449755
  0
LINE
  8
_1-0_
  6
CONTINUOUS
 62
    7
 10
402.38003943587751
 20
101.35542560086654
 11
404.18912146712751
 21
100.74335845559627
  0
LINE
  8
_1-0_
  6
CONTINUOUS
 62
    7
 10
303.37388251449079
 20
140.31267294831164
 11
357.74622253639745
 21
121.91674696251138
  0
LINE
  8
_1-0_
  6
CONTINUOUS
 62
    7
 10
312.35921428180495
 20
141.28424541188849
 11
311.5985595230423
 21
140.90818636944761
  0
LINE
  8
_1-0_
  6
CONTINUOUS
 62
    7
 10
304.59173183353636
 20
143.91222953614948
 11
305.7284456347399
 21
143.5276461918188
  0
LINE
  8
_1-0_
  6
CONTINUOUS
 62
    7
 10
312.35921428180495
 20
141.28424541188849
 11
313.30646341081678
 21
140.96374898162034
  0
LINE
  8
_1-0_
  6
CONTINUOUS
 62
    7
 10
305.7284456347399
 20
143.5276461918188
 11
305.53616014857016
 21
142.95928929121703
  0
LINE
  8
_1-0_
  6
CONTINUOUS
 62
    7
 10
313.30646341081678
 20
140.96374898162034
 11
313.11417792464704
 21
140.39540445300969
  0
LINE
  8
_1-0_
  6
CONTINUOUS
 62
    7
 10
313.11417792464704
 20
140.39540445300969
 11
357.44562026786912
 21
125.39664165212287
  0
LINE
  8
_1-0_
  6
CONTINUOUS
 62
    7
 10
305.53616014857016
 20
142.95928929121703
 11
311.5985595230423
 21
140.90818636944761
  0
LINE
  8
_1-0_
  6
CONTINUOUS
 62
    7
 10
304.59173183353636
 20
143.91222953614948
 11
302.73291439793672
 21
138.41816231829685
  0
LINE
  8
_1-0_
  6
CONTINUOUS
 62
    7
 10
304.6019510982112
 20
138.12526780024365
 11
305.45784544470615
 21
139.60759317371281
  0
LINE
  8
_1-0_
  6
CONTINUOUS
 62
    7
 10
304.12733677441474
 20
137.94638118046959
 11
302.73291439793672
 21
138.41816231829685
  0
LINE
  8
_1-0_
  6
CONTINUOUS
 62
    7
 10
359.15494693462381
 20
120.80671954617904
 11
360.96404133786496
 21
120.19464002891763
  0
LINE
  8
_1-0_
  6
CONTINUOUS
 62
    7
 10
260.14881785021709
 20
159.76396689362414
 11
314.52114550013266
 21
141.36804090782388
  0
LINE
  8
_1-0_
  6
CONTINUOUS
 62
    7
 10
269.13412487354901
 20
160.73553935720099
 11
268.37349485876865
 21
160.35948031476011
  0
LINE
  8
_1-0_
  6
CONTINUOUS
 62
    7
 10
261.36666716926271
 20
163.36352348146198
 11
262.50335622648402
 21
162.9789401371313
  0
LINE
  8
_1-0_
  6
CONTINUOUS
 62
    7
 10
269.13412487354901
 20
160.73553935720099
 11
270.08137400256084
 21
160.41505529892396
  0
LINE
  8
_1-0_
  6
CONTINUOUS
 62
    7
 10
262.50335622648402
 20
162.9789401371313
 11
262.31107074031422
 21
162.41059560852068
  0
LINE
  8
_1-0_
  6
CONTINUOUS
 62
    7
 10
270.08137400256084
 20
160.41505529892396
 11
269.8890885163911
 21
159.84669839832219
  0
LINE
  8
_1-0_
  6
CONTINUOUS
 62
    7
 10
269.8890885163911
 20
159.84669839832219
 11
314.22053085961323
 21
144.84793559743537
  0
LINE
  8
_1-0_
  6
CONTINUOUS
 62
    7
 10
262.31107074031422
 20
162.41059560852068
 11
268.37349485876865
 21
160.35948031476011
  0
LINE
  8
_1-0_
  6
CONTINUOUS
 62
    7
 10
261.36666716926271
 20
163.36352348146198
 11
259.50782498968078
 21
157.86945626360935
  0
LINE
  8
_1-0_
  6
CONTINUOUS
 62
    7
 10
261.37686168995526
 20
157.57656174555615
 11
262.23275603645021
 21
159.05889949101646
  0
LINE
  8
_1-0_
  6
CONTINUOUS
 62
    7
 10
260.9022721101411
 20
157.39767512578209
 11
259.50782498968078
 21
157.86945626360935
  0
LINE
  8
_1-0_
  6
CONTINUOUS
 62
    7
 10
216.9237284419612
 20
179.2152484669455
 11
271.29605609187672
 21
160.81933485313638
  0
LINE
  8
_1-0_
  6
CONTINUOUS
 62
    7
 10
225.90906020927537
 20
180.18682093052237
 11
225.14840545051271
 21
179.81076188808149
  0
LINE
  8
_1-0_
  6
CONTINUOUS
 62
    7
 10
218.14157776100677
 20
182.81480505478333
 11
219.27829156221037
 21
182.4302340824438
  0
LINE
  8
_1-0_
  6
CONTINUOUS
 62
    7
 10
219.27829156221037
 20
182.4302340824438
 11
219.08598133205834
 21
181.86188955383318
  0
LINE
  8
_1-0_
  6
CONTINUOUS
 62
    7
 10
226.85630933828719
 20
179.86633687224534
 11
226.66402385211745
 21
179.29799234363469
  0
LINE
  8
_1-0_
  6
CONTINUOUS
 62
    7
 10
226.66402385211745
 20
179.29799234363469
 11
270.99546619533959
 21
164.29921717075675
  0
LINE
  8
_1-0_
  6
CONTINUOUS
 62
    7
 10
219.08598133205834
 20
181.86188955383318
 11
225.14840545051271
 21
179.81076188808149
  0
LINE
  8
_1-0_
  6
CONTINUOUS
 62
    7
 10
218.15179702568162
 20
177.02785569086865
 11
219.00769137217657
 21
178.51019343632896
  0
LINE
  8
_1-0_
  6
CONTINUOUS
 62
    7
 10
217.67718270188516
 20
176.84895669910344
 11
216.28276032540714
 21
177.32075020892185
  0
LINE
  8
_1-0_
  6
CONTINUOUS
 62
    7
 10
272.70478049010308
 20
159.70929506481289
 11
274.51388726533537
 21
159.09722791954263
  0
LINE
  8
_1-0_
  6
CONTINUOUS
 62
    7
 10
391.90792219229115
 20
100.70485681919425
 11
405.78920886493484
 21
96.00837475363258
  0
LINE
  8
_1-0_
  6
CONTINUOUS
 62
    7
 10
399.53220502920522
 20
101.75938348330953
 11
407.91010837467411
 21
99.246916640245757
  0
LINE
  8
_1-0_
  6
CONTINUOUS
 62
    7
 10
226.31479965844136
 20
180.04955368891552
 11
226.85630933828719
 21
179.86633687224534
  0
LINE
  8
_1-0_
  6
CONTINUOUS
 62
    7
 10
225.90906020927537
 20
180.18682093052237
 11
226.27337823213225
 21
180.06355878287667
  0
LINE
  8
_1-0_
  6
CONTINUOUS
 62
    7
 10
226.27337823213225
 20
180.06355878287667
 11
226.31479965844136
 21
180.04955368891552
  0
ARC
  8
_1-0_
  6
CONTINUOUS
 62
    7
 10
390.75117195144969
 20
99.381561019732658
 40
0.4000000051549963
 50
253.30639648437497
 51
331.99647521972656
  0
ARC
  8
_1-0_
  6
CONTINUOUS
 62
    7
 10
402.40165330438469
 20
101.55925415476224
 40
0.2000000025774982
 50
225.90019226074222
 51
251.30766296386722
  0
ARC
  8
_1-0_
  6
CONTINUOUS
 62
    7
 10
347.48062475477792
 20
118.87400420754938
 40
0.4000000051549964
 50
251.30766296386722
 51
329.99774169921875
  0
ARC
  8
_1-0_
  6
CONTINUOUS
 62
    7
 10
395.59974290399407
 20
94.540178194035889
 40
9.5741179182722771
 50
46.160430908203111
 51
55.871551513671861
  0
ARC
  8
_1-0_
  6
CONTINUOUS
 62
    7
 10
402.50822563599365
 20
101.73433020126771
 40
0.4000000051549964
 50
226.16043090820312
 51
251.30766296386722
  0
ARC
  8
_1-0_
  6
CONTINUOUS
 62
    7
 10
394.33381602741042
 20
86.839516869869897
 40
20.129313082308386
 50
58.184417724609403
 51
71.650741577148466
  0
ARC
  8
_1-0_
  6
CONTINUOUS
 62
    7
 10
404.73486236794042
 20
103.60448038074406
 40
0.4000000051549964
 50
341.30766296386719
 51
58.184417724609403
  0
ARC
  8
_1-0_
  6
CONTINUOUS
 62
    7
 10
359.17657317512214
 20
121.0105357280836
 40
0.2000000025774982
 50
225.90019226074222
 51
251.30766296386722
  0
ARC
  8
_1-0_
  6
CONTINUOUS
 62
    7
 10
304.25553534652204
 20
138.32528578087076
 40
0.4000000051549964
 50
251.30766296386722
 51
329.99774169921875
  0
ARC
  8
_1-0_
  6
CONTINUOUS
 62
    7
 10
352.37465040274037
 20
113.99147213934839
 40
9.5741179182722771
 50
46.160430908203111
 51
55.871551513671861
  0
ARC
  8
_1-0_
  6
CONTINUOUS
 62
    7
 10
359.28314550673105
 20
121.18561177458909
 40
0.4000000051549964
 50
226.16043090820312
 51
251.30766296386722
  0
ARC
  8
_1-0_
  6
CONTINUOUS
 62
    7
 10
351.10873589814787
 20
106.29079844319128
 40
20.129313082308386
 50
58.184417724609403
 51
71.650741577148466
  0
ARC
  8
_1-0_
  6
CONTINUOUS
 62
    7
 10
361.50976986668672
 20
123.05576195406545
 40
0.4000000051549964
 50
341.30766296386719
 51
58.184417724609403
  0
ARC
  8
_1-0_
  6
CONTINUOUS
 62
    7
 10
315.95149613885735
 20
140.4618296733961
 40
0.2000000025774982
 50
225.90019226074222
 51
251.30766296386722
  0
ARC
  8
_1-0_
  6
CONTINUOUS
 62
    7
 10
261.03047068224834
 20
157.77657972618326
 40
0.4000000051549964
 50
251.30766296386722
 51
329.99774169921875
  0
ARC
  8
_1-0_
  6
CONTINUOUS
 62
    7
 10
309.14957336647558
 20
133.44276608466089
 40
9.5741179182722771
 50
46.160430908203111
 51
55.871551513671861
  0
ARC
  8
_1-0_
  6
CONTINUOUS
 62
    7
 10
316.05806847046631
 20
140.63691809189271
 40
0.4000000051549964
 50
226.16043090820312
 51
251.30766296386722
  0
ARC
  8
_1-0_
  6
CONTINUOUS
 62
    7
 10
307.88364648989193
 20
125.74209238850378
 40
20.129313082308386
 50
58.184417724609403
 51
71.650741577148466
  0
ARC
  8
_1-0_
  6
CONTINUOUS
 62
    7
 10
318.28468045843078
 20
142.50705589937795
 40
0.4000000051549964
 50
341.30766296386719
 51
58.184417724609403
  0
ARC
  8
_1-0_
  6
CONTINUOUS
 62
    7
 10
272.72640673060141
 20
159.9131236187086
 40
0.2000000025774982
 50
225.90019226074222
 51
251.30766296386722
  0
ARC
  8
_1-0_
  6
CONTINUOUS
 62
    7
 10
217.80538127399245
 20
177.22786129950464
 40
0.4000000051549964
 50
251.30766296386722
 51
329.99774169921875
  0
ARC
  8
_1-0_
  6
CONTINUOUS
 62
    7
 10
265.92448395821964
 20
152.89404765798224
 40
9.5741179182722771
 50
46.160430908203111
 51
55.871551513671861
  0
ARC
  8
_1-0_
  6
CONTINUOUS
 62
    7
 10
272.83297906221037
 20
160.08819966521409
 40
0.4000000051549964
 50
226.16043090820312
 51
251.30766296386722
  0
ARC
  8
_1-0_
  6
CONTINUOUS
 62
    7
 10
264.65858182561828
 20
145.19338633381628
 40
20.129313082308386
 50
58.184417724609403
 51
71.650741577148466
  0
ARC
  8
_1-0_
  6
CONTINUOUS
 62
    7
 10
275.05961579415714
 20
161.95834984469045
 40
0.4000000051549964
 50
341.30766296386719
 51
58.184417724609403
  0
LINE
  8
_1-0_
  6
CONTINUOUS
 62
    7
 10
406.95115475119132
 20
108.9070560620585
 11
410.98029303919935
 21
107.54386859373687
  0
LINE
  8
_1-0_
  6
CONTINUOUS
 62
    7
 10
407.93480064232961
 20
111.81440249174275
 11
404.18912146712751
 21
100.74335845559627
  0
ARC
  8
_1-0_
  6
CONTINUOUS
 62
    7
 10
407.55513366705679
 20
111.94031115709657
 40
0.4000000051549964
 50
341.6529703694236
 51
58.184417724609418
  0
ARC
  8
_1-0_
  6
CONTINUOUS
 62
    7
 10
397.15408732652679
 20
95.175347646222406
 40
20.129313082308386
 50
58.184417724609368
 51
70.96458478655083
  0
LINE
  8
_1-0_
  6
CONTINUOUS
 62
    7
 10
363.53681132485633
 20
127.79896955975204
 11
403.71931368890648
 21
114.20393266919001
  0
ARC
  8
_1-0_
  6
CONTINUOUS
 62
    7
 10
364.33005353779419
 20
131.39159273041793
 40
0.4000000051549964
 50
341.6529703694236
 51
58.184417724609418
  0
ARC
  8
_1-0_
  6
CONTINUOUS
 62
    7
 10
353.92900719726418
 20
114.62662921954379
 40
20.129313082308386
 50
58.184417724609368
 51
70.96458478655083
  0
ARC
  8
_1-0_
  6
CONTINUOUS
 62
    7
 10
267.4788531247346
 20
153.52921711016879
 40
20.129313082308386
 50
58.184417724609418
 51
70.962714552277703
  0
LINE
  8
_1-0_
  6
CONTINUOUS
 62
    7
 10
278.25956644053815
 20
170.16827195569118
 11
274.51388726533537
 21
159.09722791954263
  0
ARC
  8
_1-0_
  6
CONTINUOUS
 62
    7
 10
277.8798994652646
 20
170.29418062104293
 40
0.4000000051549964
 50
341.65297036973806
 51
58.184417724609403
  0
LINE
  8
_1-0_
  6
CONTINUOUS
 62
    7
 10
321.48522786693422
 20
150.71879197743257
 11
317.73895192960902
 21
139.64593397423013
  0
ARC
  8
_1-0_
  6
CONTINUOUS
 62
    7
 10
321.1049641295383
 20
150.84288667573043
 40
0.4000000051549964
 50
341.92650177788801
 51
58.184417724609418
  0
LINE
  8
_1-0_
  6
CONTINUOUS
 62
    7
 10
277.08666672217072
 20
166.70155101546845
 11
317.2691455043846
 21
153.10651218683844
  0
LINE
  8
_1-0_
  6
CONTINUOUS
 62
    7
 10
320.31172124172292
 20
147.25026151033086
 11
360.49423361623593
 21
133.65521440977895
  0
LINE
  8
_1-0_
  6
CONTINUOUS
 62
    7
 10
364.70970529801053
 20
131.26568921276851
 11
360.96404133786496
 21
120.19464002891763
  0
LINE
  8
_1-0_
  6
CONTINUOUS
 62
    7
 10
207.05309410523188
 20
191.74286973410511
 11
207.05309410523188
 21
197.74286478530865
  0
LINE
  8
_1-0_
  6
CONTINUOUS
 62
    7
 10
213.05312627240886
 20
197.74286478530865
 11
213.05312627240886
 21
191.74286973410511
  0
LINE
  8
_1-0_
  6
CONTINUOUS
 62
    7
 10
213.05312627240886
 20
191.74286973410511
 11
207.05309410523188
 21
191.74286973410511
  0
LINE
  8
_1-0_
  6
CONTINUOUS
 62
    7
 10
207.05309410523188
 20
197.74286478530865
 11
213.05312627240886
 21
191.74286973410511
  0
LINE
  8
_1-0_
  6
CONTINUOUS
 62
    7
 10
213.05312627240886
 20
197.74286478530865
 11
207.05309410523188
 21
191.74286973410511
  0
LINE
  8
_1-0_
  6
CONTINUOUS
 62
    7
 10
213.45313748968078
 20
191.34287088882428
 11
206.65309525995104
 21
191.34287088882428
  0
LINE
  8
_1-0_
  6
CONTINUOUS
 62
    7
 10
206.65309525995104
 20
196.10963823600542
 11
206.65309525995104
 21
191.34287088882428
  0
LINE
  8
_1-0_
  6
CONTINUOUS
 62
    7
 10
213.45313748968078
 20
196.10963823600542
 11
213.45313748968078
 21
191.34287088882428
  0
LINE
  8
_1-0_
  6
CONTINUOUS
 62
    7
 10
206.65309525995104
 20
196.10963823600542
 11
207.05309410523188
 21
196.10963823600542
  0
LINE
  8
_1-0_
  6
CONTINUOUS
 62
    7
 10
213.05312627240886
 20
196.10963823600542
 11
213.45313748968078
 21
196.10963823600542
  0
LINE
  8
_1-0_
  6
CONTINUOUS
 62
    7
 10
207.05310647722303
 20
192.18383224202319
 11
207.05310647722303
 21
177.89999446171959
  0
LINE
  8
_1-0_
  6
CONTINUOUS
 62
    7
 10
213.05310152842657
 20
192.18383224202319
 11
213.05310152842657
 21
177.89998208972844
  0
LINE
  8
_1-0_
  6
CONTINUOUS
 62
    7
 10
206.65310763194219
 20
192.58383108730402
 11
206.65310763194219
 21
177.71999436274365
  0
LINE
  8
_1-0_
  6
CONTINUOUS
 62
    7
 10
213.45311274569855
 20
192.58383108730402
 11
213.45311274569855
 21
177.71998199075253
  0
LINE
  8
_1-0_
  6
CONTINUOUS
 62
    7
 10
209.45309954890797
 20
187.7675634036047
 11
210.65310845674162
 21
187.7675634036047
  0
LINE
  8
_1-0_
  6
CONTINUOUS
 62
    7
 10
209.45309954890797
 20
188.50846009252996
 11
210.65310845674162
 21
188.50846009252996
  0
LINE
  8
_1-0_
  6
CONTINUOUS
 62
    7
 10
209.45309954890797
 20
188.20846405156709
 11
210.65310845674162
 21
188.20846405156709
  0
LINE
  8
_1-0_
  6
CONTINUOUS
 62
    7
 10
209.45309954890797
 20
187.90846801060428
 11
210.65310845674162
 21
187.90846801060428
  0
LINE
  8
_1-0_
  6
CONTINUOUS
 62
    7
 10
209.45309954890797
 20
187.067568517361
 11
210.65310845674162
 21
187.067568517361
  0
LINE
  8
_1-0_
  6
CONTINUOUS
 62
    7
 10
209.45309954890797
 20
186.76757247639819
 11
210.65310845674162
 21
186.76757247639819
  0
LINE
  8
_1-0_
  6
CONTINUOUS
 62
    7
 10
209.45309954890797
 20
190.98384807817183
 11
210.65310845674162
 21
190.98384807817183
  0
LINE
  8
_1-0_
  6
CONTINUOUS
 62
    7
 10
209.45309954890797
 20
190.68385203720896
 11
210.65310845674162
 21
190.68385203720896
  0
LINE
  8
_1-0_
  6
CONTINUOUS
 62
    7
 10
209.45309954890797
 20
190.38385599624615
 11
210.65310845674162
 21
190.38385599624615
  0
LINE
  8
_1-0_
  6
CONTINUOUS
 62
    7
 10
209.45309954890797
 20
190.08385995528329
 11
210.65310845674162
 21
190.08385995528329
  0
LINE
  8
_1-0_
  6
CONTINUOUS
 62
    7
 10
209.45309954890797
 20
189.78386391432048
 11
210.65310845674162
 21
189.78386391432048
  0
LINE
  8
_1-0_
  6
CONTINUOUS
 62
    7
 10
209.45309954890797
 20
189.48386787335761
 11
210.65310845674162
 21
189.48386787335761
  0
LINE
  8
_1-0_
  6
CONTINUOUS
 62
    7
 10
209.45309954890797
 20
189.1838718323948
 11
210.65310845674162
 21
189.1838718323948
  0
LINE
  8
_1-0_
  6
CONTINUOUS
 62
    7
 10
209.45309954890797
 20
188.88387579143193
 11
210.65310845674162
 21
188.88387579143193
  0
LINE
  8
_1-0_
  6
CONTINUOUS
 62
    7
 10
209.45309954890797
 20
188.58387975046912
 11
210.65310845674162
 21
188.58387975046912
  0
LINE
  8
_1-0_
  6
CONTINUOUS
 62
    7
 10
209.45309954890797
 20
188.28388370950626
 11
210.65310845674162
 21
188.28388370950626
  0
LINE
  8
_1-0_
  6
CONTINUOUS
 62
    7
 10
209.45309954890797
 20
187.98388766854345
 11
210.65310845674162
 21
187.98388766854345
  0
LINE
  8
_1-0_
  6
CONTINUOUS
 62
    7
 10
209.45309954890797
 20
187.68389162758064
 11
210.65310845674162
 21
187.68389162758064
  0
LINE
  8
_1-0_
  6
CONTINUOUS
 62
    7
 10
209.45309954890797
 20
187.38389558661777
 11
210.65310845674162
 21
187.38389558661777
  0
LINE
  8
_1-0_
  6
CONTINUOUS
 62
    7
 10
209.45309954890797
 20
187.08389954565496
 11
210.65310845674162
 21
187.08389954565496
  0
LINE
  8
_1-0_
  6
CONTINUOUS
 62
    7
 10
209.45309954890797
 20
186.78390350469209
 11
210.65310845674162
 21
186.78390350469209
  0
LINE
  8
_1-0_
  6
DASHED1
 62
    7
 10
209.45309954890797
 20
194.03608015033188
 11
210.05311637481594
 21
193.32459168432683
  0
LINE
  8
_1-0_
  6
DASHED1
 62
    7
 10
210.65310845674162
 20
194.14286280579006
 11
210.05311637481594
 21
193.32459168432683
  0
LINE
  8
_1-0_
  6
CONTINUOUS
 62
    7
 10
208.41244188685141
 20
195.71300457231246
 11
193.01491743979693
 21
230.54166613216933
  0
LINE
  8
_1-0_
  6
CONTINUOUS
 62
    7
 10
206.67109650704776
 20
190.42950864352235
 11
193.58338568831891
 21
218.91201921230027
  0
LINE
  8
_1-0_
  6
CONTINUOUS
 62
    7
 10
227.21890765437672
 20
189.79246244815704
 11
235.96105556400511
 21
206.33561804306458
  0
LINE
  8
_1-0_
  6
CONTINUOUS
 62
    7
 10
209.45309954890797
 20
191.34287088882428
 11
209.45309954890797
 21
187.7675634036047
  0
LINE
  8
_1-0_
  6
CONTINUOUS
 62
    7
 10
210.65310845674162
 20
191.34287088882428
 11
210.65310845674162
 21
187.7675634036047
  0
LINE
  8
_1-0_
  6
CONTINUOUS
 62
    7
 10
209.45309954890797
 20
191.34287088882428
 11
209.45309954890797
 21
178.97999505557516
  0
LINE
  8
_1-0_
  6
CONTINUOUS
 62
    7
 10
210.65310845674162
 20
191.34287088882428
 11
210.65310845674162
 21
178.97998268358401
  0
CIRCLE
  8
_1-0_
  6
CONTINUOUS
 62
    7
 10
193.00851758959834
 20
190.13759731939862
 40
0.2725597776271945
  0
CIRCLE
  8
_1-0_
  6
CONTINUOUS
 62
    7
 10
194.41028062822363
 20
189.58908134776266
 40
0.136279888813598
  0
CIRCLE
  8
_1-0_
  6
CONTINUOUS
 62
    7
 10
193.73987221844629
 20
189.34529647148
 40
0.1828386572119882
  0
CIRCLE
  8
_1-0_
  6
CONTINUOUS
 62
    7
 10
193.00851758959834
 20
189.34529647148
 40
0.2725597776271865
  0
CIRCLE
  8
_1-0_
  6
CONTINUOUS
 62
    7
 10
193.86176465658764
 20
188.12637209006675
 40
0.2437848762826462
  0
CIRCLE
  8
_1-0_
  6
CONTINUOUS
 62
    7
 10
192.76473271331571
 20
186.66366283237085
 40
0.2437848762826462
  0
CIRCLE
  8
_1-0_
  6
CONTINUOUS
 62
    7
 10
194.65406550450626
 20
186.41987795608821
 40
0.2437848762826462
  0
CIRCLE
  8
_1-0_
  6
CONTINUOUS
 62
    7
 10
195.38542013335422
 20
186.41987795608821
 40
0.2437848762826462
  0
CIRCLE
  8
_1-0_
  6
CONTINUOUS
 62
    7
 10
196.23866720034351
 20
188.2482645282081
 40
0.2437848762826462
  0
CIRCLE
  8
_1-0_
  6
CONTINUOUS
 62
    7
 10
195.99488232406082
 20
190.44232841475193
 40
0.2437848762826462
  0
CIRCLE
  8
_1-0_
  6
CONTINUOUS
 62
    7
 10
195.14163525707158
 20
191.23462926267055
 40
0.2437848762826462
  0
CIRCLE
  8
_1-0_
  6
CONTINUOUS
 62
    7
 10
193.67892599937568
 20
190.68611329103459
 40
0.2437848762826462
  0
CIRCLE
  8
_1-0_
  6
CONTINUOUS
 62
    7
 10
195.2025814761422
 20
189.34529647148
 40
0.2437848762826462
  0
CIRCLE
  8
_1-0_
  6
CONTINUOUS
 62
    7
 10
195.93393610499015
 20
188.37015696634941
 40
0.2437848762826462
  0
CIRCLE
  8
_1-0_
  6
CONTINUOUS
 62
    7
 10
197.57948401989808
 20
187.21217880400681
 40
0.2437848762826462
  0
CIRCLE
  8
_1-0_
  6
CONTINUOUS
 62
    7
 10
198.3717848678167
 20
187.15123258493617
 40
0.2437848762826462
  0
CIRCLE
  8
_1-0_
  6
CONTINUOUS
 62
    7
 10
198.3717848678167
 20
190.13759731939862
 40
0.2437848762826462
  0
CIRCLE
  8
_1-0_
  6
CONTINUOUS
 62
    7
 10
197.88421511525138
 20
191.78314523430652
 40
0.2437848762826462
  0
CIRCLE
  8
_1-0_
  6
CONTINUOUS
 62
    7
 10
197.27475292454477
 20
192.39260742501313
 40
0.2437848762826462
  0
CIRCLE
  8
_1-0_
  6
CONTINUOUS
 62
    7
 10
199.65165546830059
 20
193.6115318064264
 40
0.2437848762826462
  0
CIRCLE
  8
_1-0_
  6
CONTINUOUS
 62
    7
 10
200.87057984971386
 20
193.85531668270903
 40
0.2437848762826462
  0
CIRCLE
  8
_1-0_
  6
CONTINUOUS
 62
    7
 10
201.66288069763249
 20
194.22099399713301
 40
0.2437848762826462
  0
CIRCLE
  8
_1-0_
  6
CONTINUOUS
 62
    7
 10
202.63802020276307
 20
194.03815533992105
 40
0.2437848762826462
  0
CIRCLE
  8
_1-0_
  6
CONTINUOUS
 62
    7
 10
201.54098825949114
 20
191.90503767244783
 40
0.2437848762826462
  0
CIRCLE
  8
_1-0_
  6
CONTINUOUS
 62
    7
 10
200.62679497343117
 20
189.71097378590397
 40
0.2437848762826462
  0
CIRCLE
  8
_1-0_
  6
CONTINUOUS
 62
    7
 10
199.40787059201796
 20
189.28435025240935
 40
0.2437848762826462
  0
CIRCLE
  8
_1-0_
  6
CONTINUOUS
 62
    7
 10
197.64043023896875
 20
188.12637209006675
 40
0.2437848762826462
  0
CIRCLE
  8
_1-0_
  6
CONTINUOUS
 62
    7
 10
192.52094783703308
 20
187.76069477564278
 40
0.2437848762826462
  0
CIRCLE
  8
_1-0_
  6
CONTINUOUS
 62
    7
 10
196.17772098127284
 20
186.48082417515886
 40
0.2437848762826462
  0
CIRCLE
  8
_1-0_
  6
CONTINUOUS
 62
    7
 10
197.03096804826208
 20
190.13759731939862
 40
0.2437848762826462
  0
CIRCLE
  8
_1-0_
  6
CONTINUOUS
 62
    7
 10
196.17772098127284
 20
191.66125279616517
 40
0.2437848762826462
  0
CIRCLE
  8
_1-0_
  6
CONTINUOUS
 62
    7
 10
196.23866720034351
 20
192.57544608222514
 40
0.2437848762826462
  0
CIRCLE
  8
_1-0_
  6
CONTINUOUS
 62
    7
 10
196.54339829569682
 20
192.88017717757845
 40
0.2437848762826462
  0
CIRCLE
  8
_1-0_
  6
CONTINUOUS
 62
    7
 10
199.65165546830059
 20
191.90503767244783
 40
0.2437848762826462
  0
CIRCLE
  8
_1-0_
  6
CONTINUOUS
 62
    7
 10
199.59070924922992
 20
191.05179060545856
 40
0.2437848762826462
  0
CIRCLE
  8
_1-0_
  6
CONTINUOUS
 62
    7
 10
199.46881681108863
 20
187.57785611843079
 40
0.2437848762826462
  0
CIRCLE
  8
_1-0_
  6
CONTINUOUS
 62
    7
 10
200.80963363064319
 20
187.6997485565721
 40
0.2437848762826462
  0
CIRCLE
  8
_1-0_
  6
CONTINUOUS
 62
    7
 10
202.21139666926842
 20
190.01570488125731
 40
0.2437848762826462
  0
CIRCLE
  8
_1-0_
  6
CONTINUOUS
 62
    7
 10
220.25147751418456
 20
194.34288643527435
 40
0.2437848762826462
  0
CIRCLE
  8
_1-0_
  6
CONTINUOUS
 62
    7
 10
221.16567080024453
 20
191.84409145337719
 40
0.2437848762826462
  0
CIRCLE
  8
_1-0_
  6
CONTINUOUS
 62
    7
 10
222.20175652444578
 20
189.28435025240935
 40
0.2437848762826462
  0
CIRCLE
  8
_1-0_
  6
CONTINUOUS
 62
    7
 10
223.48162712492973
 20
189.89381244311596
 40
0.2437848762826462
  0
CIRCLE
  8
_1-0_
  6
CONTINUOUS
 62
    7
 10
223.48162712492973
 20
192.02693011058915
 40
0.2437848762826462
  0
CIRCLE
  8
_1-0_
  6
CONTINUOUS
 62
    7
 10
225.24906747797894
 20
190.8080057291759
 40
0.2437848762826462
  0
CIRCLE
  8
_1-0_
  6
CONTINUOUS
 62
    7
 10
226.2851532021802
 20
190.19854353846927
 40
0.2437848762826462
  0
CIRCLE
  8
_1-0_
  6
CONTINUOUS
 62
    7
 10
226.2851532021802
 20
191.2955754817412
 40
0.2437848762826462
  0
CIRCLE
  8
_1-0_
  6
CONTINUOUS
 62
    7
 10
227.4431313645228
 20
190.5032746338226
 40
0.2437848762826462
  0
CIRCLE
  8
_1-0_
  6
CONTINUOUS
 62
    7
 10
227.80880867894678
 20
189.52813512869199
 40
0.2437848762826462
  0
CIRCLE
  8
_1-0_
  6
CONTINUOUS
 62
    7
 10
224.88339016355496
 20
189.34529647148
 40
0.2437848762826462
  0
CIRCLE
  8
_1-0_
  6
CONTINUOUS
 62
    7
 10
219.27633800905397
 20
189.46718890962134
 40
0.2437848762826462
  0
CIRCLE
  8
_1-0_
  6
CONTINUOUS
 62
    7
 10
218.54498338020602
 20
189.28435025240935
 40
0.2437848762826462
  0
CIRCLE
  8
_1-0_
  6
CONTINUOUS
 62
    7
 10
215.55861864574354
 20
189.28435025240935
 40
0.2437848762826462
  0
CIRCLE
  8
_1-0_
  6
CONTINUOUS
 62
    7
 10
214.82726401689558
 20
192.4535536440838
 40
0.2437848762826462
  0
CIRCLE
  8
_1-0_
  6
CONTINUOUS
 62
    7
 10
216.10713461737953
 20
191.84409145337719
 40
0.2437848762826462
  0
CIRCLE
  8
_1-0_
  6
CONTINUOUS
 62
    7
 10
218.84971447555932
 20
191.11273682452924
 40
0.2437848762826462
  0
CIRCLE
  8
_1-0_
  6
CONTINUOUS
 62
    7
 10
217.20416656065146
 20
193.24585449200242
 40
0.2437848762826462
  0
CIRCLE
  8
_1-0_
  6
CONTINUOUS
 62
    7
 10
215.61956486481421
 20
195.37897215947561
 40
0.2437848762826462
  0
CIRCLE
  8
_1-0_
  6
CONTINUOUS
 62
    7
 10
214.76631779782497
 20
196.47600410274754
 40
0.2437848762826462
  0
CIRCLE
  8
_1-0_
  6
CONTINUOUS
 62
    7
 10
213.97401694990634
 20
197.57303604601947
 40
0.2437848762826462
  0
CIRCLE
  8
_1-0_
  6
CONTINUOUS
 62
    7
 10
214.64442535968362
 20
196.78073519810084
 40
0.2437848762826462
  0
CIRCLE
  8
_1-0_
  6
CONTINUOUS
 62
    7
 10
217.08227412251011
 20
194.16004777806234
 40
0.2437848762826462
  0
CIRCLE
  8
_1-0_
  6
CONTINUOUS
 62
    7
 10
221.34850945745649
 20
191.60030657709453
 40
0.2437848762826462
  0
CIRCLE
  8
_1-0_
  6
CONTINUOUS
 62
    7
 10
217.87457497042874
 20
195.62275703575824
 40
0.2437848762826462
  0
CIRCLE
  8
_1-0_
  6
CONTINUOUS
 62
    7
 10
220.49526239046725
 20
193.00206961571976
 40
0.2437848762826462
  0
CIRCLE
  8
_1-0_
  6
CONTINUOUS
 62
    7
 10
222.01891786723382
 20
193.24585449200242
 40
0.2437848762826462
  0
CIRCLE
  8
_1-0_
  6
CONTINUOUS
 62
    7
 10
223.48162712492973
 20
192.02693011058915
 40
0.2437848762826462
  0
CIRCLE
  8
_1-0_
  6
CONTINUOUS
 62
    7
 10
223.29878846771771
 20
190.56422085289324
 40
0.2437848762826462
  0
CIRCLE
  8
_1-0_
  6
CONTINUOUS
 62
    7
 10
219.64201532347795
 20
191.05179060545856
 40
0.2437848762826462
  0
CIRCLE
  8
_1-0_
  6
CONTINUOUS
 62
    7
 10
217.63079009414611
 20
192.7582847394371
 40
0.2437848762826462
  0
CIRCLE
  8
_1-0_
  6
CONTINUOUS
 62
    7
 10
224.51771284913099
 20
191.72219901523584
 40
0.2437848762826462
  0
CIRCLE
  8
_1-0_
  6
CONTINUOUS
 62
    7
 10
204.28356811767094
 20
189.71097378590397
 40
0.2437848762826462
  0
CIRCLE
  8
_1-0_
  6
CONTINUOUS
 62
    7
 10
204.34451433674161
 20
188.12637209006675
 40
0.2437848762826462
  0
CIRCLE
  8
_1-0_
  6
CONTINUOUS
 62
    7
 10
203.18653617439901
 20
187.15123258493617
 40
0.2437848762826462
  0
CIRCLE
  8
_1-0_
  6
CONTINUOUS
 62
    7
 10
203.18653617439901
 20
190.74705951010526
 40
0.2437848762826462
  0
CIRCLE
  8
_1-0_
  6
CONTINUOUS
 62
    7
 10
203.91789080324696
 20
193.6115318064264
 40
0.2437848762826462
  0
CIRCLE
  8
_1-0_
  6
CONTINUOUS
 62
    7
 10
201.35814960227913
 20
195.31802594040494
 40
0.2437848762826462
  0
CIRCLE
  8
_1-0_
  6
CONTINUOUS
 62
    7
 10
194.65406550450626
 20
187.3950174612188
 40
0.2437848762826462
  0
CIRCLE
  8
_1-0_
  6
CONTINUOUS
 62
    7
 10
193.06946380866901
 20
186.90744770865351
 40
0.2437848762826462
  0
CIRCLE
  8
_1-0_
  6
CONTINUOUS
 62
    7
 10
193.61797978030501
 20
191.2955754817412
 40
0.2437848762826462
  0
CIRCLE
  8
_1-0_
  6
CONTINUOUS
 62
    7
 10
192.70378649424504
 20
191.05179060545856
 40
0.2437848762826462
  0
CIRCLE
  8
_1-0_
  6
CONTINUOUS
 62
    7
 10
193.43514112309299
 20
186.29798551794687
 40
0.2437848762826462
  0
CIRCLE
  8
_1-0_
  6
CONTINUOUS
 62
    7
 10
205.68533115629623
 20
196.59789654088888
 40
0.2437848762826462
  0
CIRCLE
  8
_1-0_
  6
CONTINUOUS
 62
    7
 10
200.20017143993658
 20
194.52572509248631
 40
0.2437848762826462
  0
CIRCLE
  8
_1-0_
  6
CONTINUOUS
 62
    7
 10
204.03978324138831
 20
191.72219901523584
 40
0.2437848762826462
  0
CIRCLE
  8
_1-0_
  6
CONTINUOUS
 62
    7
 10
204.10072946045898
 20
190.25948975753994
 40
0.2437848762826462
  0
CIRCLE
  8
_1-0_
  6
CONTINUOUS
 62
    7
 10
204.03978324138831
 20
187.45596368028947
 40
0.2437848762826462
  0
CIRCLE
  8
_1-0_
  6
CONTINUOUS
 62
    7
 10
202.75991264090442
 20
188.85772671891471
 40
0.2437848762826462
  0
CIRCLE
  8
_1-0_
  6
CONTINUOUS
 62
    7
 10
200.56584875436056
 20
190.86895194824658
 40
0.2437848762826462
  0
CIRCLE
  8
_1-0_
  6
CONTINUOUS
 62
    7
 10
198.49367730595799
 20
193.36774693014374
 40
0.2437848762826462
  0
CIRCLE
  8
_1-0_
  6
CONTINUOUS
 62
    7
 10
217.56984387507543
 20
190.38138219568128
 40
0.2437848762826462
  0
CIRCLE
  8
_1-0_
  6
CONTINUOUS
 62
    7
 10
222.01891786723382
 20
189.83286622404532
 40
0.2437848762826462
  0
CIRCLE
  8
_1-0_
  6
CONTINUOUS
 62
    7
 10
218.91066069463
 20
193.06301583479043
 40
0.2437848762826462
  0
CIRCLE
  8
_1-0_
  6
CONTINUOUS
 62
    7
 10
218.30119850392339
 20
194.58667131155698
 40
0.2437848762826462
  0
CIRCLE
  8
_1-0_
  6
CONTINUOUS
 62
    7
 10
223.84730443935371
 20
192.27071498687181
 40
0.2437848762826462
  0
LINE
  8
_1-0_
  6
CONTINUOUS
 62
    7
 10
207.05309410523188
 20
197.74286478530865
 11
213.05312627240886
 21
197.74286478530865
  0
CIRCLE
  8
_1-0_
  6
CONTINUOUS
 62
    7
 10
227.09766567206896
 20
190.13759731939862
 40
0.2725597776271945
  0
CIRCLE
  8
_1-0_
  6
CONTINUOUS
 62
    7
 10
225.69590263344372
 20
189.58908134776266
 40
0.136279888813598
  0
CIRCLE
  8
_1-0_
  6
CONTINUOUS
 62
    7
 10
226.366311043221
 20
189.34529647148
 40
0.1828386572119882
  0
CIRCLE
  8
_1-0_
  6
CONTINUOUS
 62
    7
 10
227.09766567206896
 20
189.34529647148
 40
0.2725597776271865
  0
CIRCLE
  8
_1-0_
  6
CONTINUOUS
 62
    7
 10
226.24441860507966
 20
188.12637209006675
 40
0.2437848762826462
  0
CIRCLE
  8
_1-0_
  6
CONTINUOUS
 62
    7
 10
228.80415980604749
 20
187.82164099471345
 40
0.2437848762826462
  0
CIRCLE
  8
_1-0_
  6
CONTINUOUS
 62
    7
 10
227.34145054835165
 20
186.66366283237085
 40
0.2437848762826462
  0
CIRCLE
  8
_1-0_
  6
CONTINUOUS
 62
    7
 10
225.45211775716109
 20
186.41987795608821
 40
0.2437848762826462
  0
CIRCLE
  8
_1-0_
  6
CONTINUOUS
 62
    7
 10
224.72076312831314
 20
186.41987795608821
 40
0.2437848762826462
  0
CIRCLE
  8
_1-0_
  6
CONTINUOUS
 62
    7
 10
223.86751606132384
 20
188.2482645282081
 40
0.2437848762826462
  0
CIRCLE
  8
_1-0_
  6
CONTINUOUS
 62
    7
 10
224.11130093760647
 20
190.44232841475193
 40
0.2437848762826462
  0
CIRCLE
  8
_1-0_
  6
CONTINUOUS
 62
    7
 10
224.96454800459577
 20
191.23462926267055
 40
0.2437848762826462
  0
CIRCLE
  8
_1-0_
  6
CONTINUOUS
 62
    7
 10
226.42725726229168
 20
190.68611329103459
 40
0.2437848762826462
  0
CIRCLE
  8
_1-0_
  6
CONTINUOUS
 62
    7
 10
224.9036017855251
 20
189.34529647148
 40
0.2437848762826462
  0
CIRCLE
  8
_1-0_
  6
CONTINUOUS
 62
    7
 10
224.17224715667714
 20
188.37015696634941
 40
0.2437848762826462
  0
CIRCLE
  8
_1-0_
  6
CONTINUOUS
 62
    7
 10
222.52669924176928
 20
187.21217880400681
 40
0.2437848762826462
  0
CIRCLE
  8
_1-0_
  6
CONTINUOUS
 62
    7
 10
221.73439839385065
 20
187.15123258493617
 40
0.2437848762826462
  0
CIRCLE
  8
_1-0_
  6
CONTINUOUS
 62
    7
 10
221.73439839385065
 20
190.13759731939862
 40
0.2437848762826462
  0
CIRCLE
  8
_1-0_
  6
CONTINUOUS
 62
    7
 10
222.22196814641597
 20
191.78314523430652
 40
0.2437848762826462
  0
CIRCLE
  8
_1-0_
  6
CONTINUOUS
 62
    7
 10
222.83143033712258
 20
192.39260742501313
 40
0.2437848762826462
  0
CIRCLE
  8
_1-0_
  6
CONTINUOUS
 62
    7
 10
220.45452779336671
 20
193.6115318064264
 40
0.2437848762826462
  0
CIRCLE
  8
_1-0_
  6
CONTINUOUS
 62
    7
 10
219.23560341195349
 20
193.85531668270903
 40
0.2437848762826462
  0
CIRCLE
  8
_1-0_
  6
CONTINUOUS
 62
    7
 10
218.44330256403487
 20
194.22099399713301
 40
0.2437848762826462
  0
CIRCLE
  8
_1-0_
  6
CONTINUOUS
 62
    7
 10
217.46816305890428
 20
194.03815533992105
 40
0.2437848762826462
  0
CIRCLE
  8
_1-0_
  6
CONTINUOUS
 62
    7
 10
218.56519500217621
 20
191.90503767244783
 40
0.2437848762826462
  0
CIRCLE
  8
_1-0_
  6
CONTINUOUS
 62
    7
 10
219.47938828823612
 20
189.71097378590397
 40
0.2437848762826462
  0
CIRCLE
  8
_1-0_
  6
CONTINUOUS
 62
    7
 10
220.6983126696494
 20
189.28435025240935
 40
0.2437848762826462
  0
CIRCLE
  8
_1-0_
  6
CONTINUOUS
 62
    7
 10
222.46575302269861
 20
188.12637209006675
 40
0.2437848762826462
  0
CIRCLE
  8
_1-0_
  6
CONTINUOUS
 62
    7
 10
227.58523542463428
 20
187.76069477564278
 40
0.2437848762826462
  0
CIRCLE
  8
_1-0_
  6
CONTINUOUS
 62
    7
 10
228.3775362725529
 20
190.13759731939862
 40
0.2437848762826462
  0
CIRCLE
  8
_1-0_
  6
CONTINUOUS
 62
    7
 10
223.92846228039451
 20
186.48082417515886
 40
0.2437848762826462
  0
CIRCLE
  8
_1-0_
  6
CONTINUOUS
 62
    7
 10
223.07521521340522
 20
190.13759731939862
 40
0.2437848762826462
  0
CIRCLE
  8
_1-0_
  6
CONTINUOUS
 62
    7
 10
223.92846228039451
 20
191.66125279616517
 40
0.2437848762826462
  0
CIRCLE
  8
_1-0_
  6
CONTINUOUS
 62
    7
 10
223.86751606132384
 20
192.57544608222514
 40
0.2437848762826462
  0
CIRCLE
  8
_1-0_
  6
CONTINUOUS
 62
    7
 10
223.56278496597054
 20
192.88017717757845
 40
0.2437848762826462
  0
CIRCLE
  8
_1-0_
  6
CONTINUOUS
 62
    7
 10
220.45452779336671
 20
191.90503767244783
 40
0.2437848762826462
  0
CIRCLE
  8
_1-0_
  6
CONTINUOUS
 62
    7
 10
220.51547401243738
 20
191.05179060545856
 40
0.2437848762826462
  0
CIRCLE
  8
_1-0_
  6
CONTINUOUS
 62
    7
 10
220.63736645057872
 20
187.57785611843079
 40
0.2437848762826462
  0
CIRCLE
  8
_1-0_
  6
CONTINUOUS
 62
    7
 10
219.29654963102416
 20
187.6997485565721
 40
0.2437848762826462
  0
CIRCLE
  8
_1-0_
  6
CONTINUOUS
 62
    7
 10
217.89478659239893
 20
190.01570488125731
 40
0.2437848762826462
  0
CIRCLE
  8
_1-0_
  6
CONTINUOUS
 62
    7
 10
215.82261514399636
 20
189.71097378590397
 40
0.2437848762826462
  0
CIRCLE
  8
_1-0_
  6
CONTINUOUS
 62
    7
 10
215.76166892492569
 20
188.12637209006675
 40
0.2437848762826462
  0
CIRCLE
  8
_1-0_
  6
CONTINUOUS
 62
    7
 10
216.91964708726829
 20
187.15123258493617
 40
0.2437848762826462
  0
CIRCLE
  8
_1-0_
  6
CONTINUOUS
 62
    7
 10
216.91964708726829
 20
190.74705951010526
 40
0.2437848762826462
  0
CIRCLE
  8
_1-0_
  6
CONTINUOUS
 62
    7
 10
216.18829245842034
 20
193.6115318064264
 40
0.2437848762826462
  0
CIRCLE
  8
_1-0_
  6
CONTINUOUS
 62
    7
 10
218.74803365938817
 20
195.31802594040494
 40
0.2437848762826462
  0
CIRCLE
  8
_1-0_
  6
CONTINUOUS
 62
    7
 10
225.45211775716109
 20
187.3950174612188
 40
0.2437848762826462
  0
CIRCLE
  8
_1-0_
  6
CONTINUOUS
 62
    7
 10
227.03671945299828
 20
186.90744770865351
 40
0.2437848762826462
  0
CIRCLE
  8
_1-0_
  6
CONTINUOUS
 62
    7
 10
226.48820348136235
 20
191.2955754817412
 40
0.2437848762826462
  0
CIRCLE
  8
_1-0_
  6
CONTINUOUS
 62
    7
 10
227.40239676742226
 20
191.05179060545856
 40
0.2437848762826462
  0
CIRCLE
  8
_1-0_
  6
CONTINUOUS
 62
    7
 10
226.67104213857431
 20
186.29798551794687
 40
0.2437848762826462
  0
CIRCLE
  8
_1-0_
  6
CONTINUOUS
 62
    7
 10
219.90601182173077
 20
194.52572509248631
 40
0.2437848762826462
  0
CIRCLE
  8
_1-0_
  6
CONTINUOUS
 62
    7
 10
216.00545380120838
 20
190.25948975753994
 40
0.2437848762826462
  0
CIRCLE
  8
_1-0_
  6
CONTINUOUS
 62
    7
 10
216.06640002027905
 20
187.45596368028947
 40
0.2437848762826462
  0
CIRCLE
  8
_1-0_
  6
CONTINUOUS
 62
    7
 10
217.34627062076294
 20
188.85772671891471
 40
0.2437848762826462
  0
CIRCLE
  8
_1-0_
  6
CONTINUOUS
 62
    7
 10
219.5403345073068
 20
190.86895194824658
 40
0.2437848762826462
  0
CIRCLE
  8
_1-0_
  6
CONTINUOUS
 62
    7
 10
221.61250595570931
 20
193.36774693014374
 40
0.2437848762826462
  0
CIRCLE
  8
_1-0_
  6
CONTINUOUS
 62
    7
 10
193.68037377619783
 20
184.54568161212089
 40
0.2437848762826462
  0
CIRCLE
  8
_1-0_
  6
CONTINUOUS
 62
    7
 10
192.94901914734987
 20
185.5208211172515
 40
0.2437848762826462
  0
CIRCLE
  8
_1-0_
  6
CONTINUOUS
 62
    7
 10
194.77740571946975
 20
184.97230514561554
 40
0.2437848762826462
  0
CIRCLE
  8
_1-0_
  6
CONTINUOUS
 62
    7
 10
196.11822253902432
 20
185.09419758375685
 40
0.2437848762826462
  0
CIRCLE
  8
_1-0_
  6
CONTINUOUS
 62
    7
 10
193.56714081568816
 20
182.14500673933412
 40
0.2437848762826462
  0
CIRCLE
  8
_1-0_
  6
CONTINUOUS
 62
    7
 10
194.35944166360673
 20
182.08406052026345
 40
0.2437848762826462
  0
CIRCLE
  8
_1-0_
  6
CONTINUOUS
 62
    7
 10
195.45647360687872
 20
182.5106840537581
 40
0.2437848762826462
  0
CIRCLE
  8
_1-0_
  6
CONTINUOUS
 62
    7
 10
196.79729042643328
 20
182.63257649189941
 40
0.2437848762826462
  0
CIRCLE
  8
_1-0_
  6
CONTINUOUS
 62
    7
 10
193.99155824531874
 20
181.46593885192516
 40
0.2437848762826462
  0
CIRCLE
  8
_1-0_
  6
CONTINUOUS
 62
    7
 10
194.78385909323737
 20
181.40499263285449
 40
0.2437848762826462
  0
CIRCLE
  8
_1-0_
  6
CONTINUOUS
 62
    7
 10
194.05250446438941
 20
182.3801321379851
 40
0.2437848762826462
  0
CIRCLE
  8
_1-0_
  6
CONTINUOUS
 62
    7
 10
195.8808910365093
 20
181.83161616634914
 40
0.2437848762826462
  0
CIRCLE
  8
_1-0_
  6
CONTINUOUS
 62
    7
 10
197.22170785606386
 20
181.95350860449048
 40
0.2437848762826462
  0
CIRCLE
  8
_1-0_
  6
CONTINUOUS
 62
    7
 10
196.70782979495453
 20
184.18221040156095
 40
0.2437848762826462
  0
CIRCLE
  8
_1-0_
  6
CONTINUOUS
 62
    7
 10
197.50013064287316
 20
184.12126418249031
 40
0.2437848762826462
  0
CIRCLE
  8
_1-0_
  6
CONTINUOUS
 62
    7
 10
196.76877601402521
 20
185.09640368762089
 40
0.2437848762826462
  0
CIRCLE
  8
_1-0_
  6
CONTINUOUS
 62
    7
 10
198.59716258614509
 20
184.54788771598493
 40
0.2437848762826462
  0
CIRCLE
  8
_1-0_
  6
CONTINUOUS
 62
    7
 10
199.93797940569965
 20
184.66978015412627
 40
0.2437848762826462
  0
CIRCLE
  8
_1-0_
  6
CONTINUOUS
 62
    7
 10
199.59386831644258
 20
185.28569571860052
 40
0.2437848762826462
  0
CIRCLE
  8
_1-0_
  6
CONTINUOUS
 62
    7
 10
200.38616916436121
 20
185.22474949952985
 40
0.2437848762826462
  0
CIRCLE
  8
_1-0_
  6
CONTINUOUS
 62
    7
 10
199.65481453551325
 20
186.19988900466046
 40
0.2437848762826462
  0
CIRCLE
  8
_1-0_
  6
CONTINUOUS
 62
    7
 10
201.48320110763314
 20
185.6513730330245
 40
0.2437848762826462
  0
CIRCLE
  8
_1-0_
  6
CONTINUOUS
 62
    7
 10
202.8240179271877
 20
185.77326547116581
 40
0.2437848762826462
  0
CIRCLE
  8
_1-0_
  6
CONTINUOUS
 62
    7
 10
201.97060592237392
 20
183.58802600007814
 40
0.2437848762826462
  0
CIRCLE
  8
_1-0_
  6
CONTINUOUS
 62
    7
 10
202.76290677029249
 20
183.52707978100747
 40
0.2437848762826462
  0
CIRCLE
  8
_1-0_
  6
CONTINUOUS
 62
    7
 10
202.03155214144454
 20
184.50221928613809
 40
0.2437848762826462
  0
CIRCLE
  8
_1-0_
  6
CONTINUOUS
 62
    7
 10
203.85993871356442
 20
183.95370331450212
 40
0.2437848762826462
  0
CIRCLE
  8
_1-0_
  6
CONTINUOUS
 62
    7
 10
205.20075553311904
 20
184.07559575264344
 40
0.2437848762826462
  0
CIRCLE
  8
_1-0_
  6
CONTINUOUS
 62
    7
 10
202.73455729570895
 20
184.18221040156095
 40
0.2437848762826462
  0
CIRCLE
  8
_1-0_
  6
CONTINUOUS
 62
    7
 10
203.52685814362758
 20
184.12126418249031
 40
0.2437848762826462
  0
CIRCLE
  8
_1-0_
  6
CONTINUOUS
 62
    7
 10
202.79550351477963
 20
185.09640368762089
 40
0.2437848762826462
  0
CIRCLE
  8
_1-0_
  6
CONTINUOUS
 62
    7
 10
204.62389008689951
 20
184.54788771598493
 40
0.2437848762826462
  0
CIRCLE
  8
_1-0_
  6
CONTINUOUS
 62
    7
 10
205.96470690645407
 20
184.66978015412627
 40
0.2437848762826462
  0
CIRCLE
  8
_1-0_
  6
CONTINUOUS
 62
    7
 10
198.49038299940304
 20
182.99384159859528
 40
0.2437848762826462
  0
CIRCLE
  8
_1-0_
  6
CONTINUOUS
 62
    7
 10
199.28268384732166
 20
182.93289537952464
 40
0.2437848762826462
  0
CIRCLE
  8
_1-0_
  6
CONTINUOUS
 62
    7
 10
198.55132921847371
 20
183.90803488465525
 40
0.2437848762826462
  0
CIRCLE
  8
_1-0_
  6
CONTINUOUS
 62
    7
 10
200.37971579059359
 20
183.35951891301926
 40
0.2437848762826462
  0
CIRCLE
  8
_1-0_
  6
CONTINUOUS
 62
    7
 10
201.72053261014815
 20
183.4814113511606
 40
0.2437848762826462
  0
CIRCLE
  8
_1-0_
  6
CONTINUOUS
 62
    7
 10
199.76363528829484
 20
189.02056909934973
 40
0.2437848762826462
  0
CIRCLE
  8
_1-0_
  6
CONTINUOUS
 62
    7
 10
200.5559361362134
 20
188.95962288027908
 40
0.2437848762826462
  0
CIRCLE
  8
_1-0_
  6
CONTINUOUS
 62
    7
 10
199.82458150736545
 20
189.93476238540967
 40
0.2437848762826462
  0
CIRCLE
  8
_1-0_
  6
CONTINUOUS
 62
    7
 10
201.65296807948533
 20
189.3862464137737
 40
0.2437848762826462
  0
CIRCLE
  8
_1-0_
  6
CONTINUOUS
 62
    7
 10
202.99378489903995
 20
189.50813885191502
 40
0.2437848762826462
  0
CIRCLE
  8
_1-0_
  6
CONTINUOUS
 62
    7
 10
215.80661412833126
 20
185.7101131482311
 40
0.2437848762826462
  0
CIRCLE
  8
_1-0_
  6
CONTINUOUS
 62
    7
 10
216.59891497624983
 20
185.64916692916046
 40
0.2437848762826462
  0
CIRCLE
  8
_1-0_
  6
CONTINUOUS
 62
    7
 10
215.86756034740193
 20
186.62430643429104
 40
0.2437848762826462
  0
CIRCLE
  8
_1-0_
  6
CONTINUOUS
 62
    7
 10
217.69594691952182
 20
186.07579046265508
 40
0.2437848762826462
  0
CIRCLE
  8
_1-0_
  6
CONTINUOUS
 62
    7
 10
219.03676373907638
 20
186.19768290079639
 40
0.2437848762826462
  0
CIRCLE
  8
_1-0_
  6
CONTINUOUS
 62
    7
 10
217.24963338907526
 20
187.57754983860571
 40
0.2437848762826462
  0
CIRCLE
  8
_1-0_
  6
CONTINUOUS
 62
    7
 10
218.04193423699388
 20
187.51660361953503
 40
0.2437848762826462
  0
CIRCLE
  8
_1-0_
  6
CONTINUOUS
 62
    7
 10
217.31057960814593
 20
188.49174312466565
 40
0.2437848762826462
  0
CIRCLE
  8
_1-0_
  6
CONTINUOUS
 62
    7
 10
219.13896618026581
 20
187.94322715302968
 40
0.2437848762826462
  0
CIRCLE
  8
_1-0_
  6
CONTINUOUS
 62
    7
 10
220.47978299982037
 20
188.06511959117103
 40
0.2437848762826462
  0
CIRCLE
  8
_1-0_
  6
CONTINUOUS
 62
    7
 10
215.38219669870062
 20
182.99384159859528
 40
0.2437848762826462
  0
CIRCLE
  8
_1-0_
  6
CONTINUOUS
 62
    7
 10
216.17449754661925
 20
182.93289537952464
 40
0.2437848762826462
  0
CIRCLE
  8
_1-0_
  6
CONTINUOUS
 62
    7
 10
215.4431429177713
 20
183.90803488465525
 40
0.2437848762826462
  0
CIRCLE
  8
_1-0_
  6
CONTINUOUS
 62
    7
 10
217.27152948989118
 20
183.35951891301926
 40
0.2437848762826462
  0
CIRCLE
  8
_1-0_
  6
CONTINUOUS
 62
    7
 10
218.6123463094458
 20
183.4814113511606
 40
0.2437848762826462
  0
CIRCLE
  8
_1-0_
  6
CONTINUOUS
 62
    7
 10
214.36359486758721
 20
184.35197737341321
 40
0.2437848762826462
  0
CIRCLE
  8
_1-0_
  6
CONTINUOUS
 62
    7
 10
215.15589571550584
 20
184.29103115434253
 40
0.2437848762826462
  0
CIRCLE
  8
_1-0_
  6
CONTINUOUS
 62
    7
 10
214.42454108665788
 20
185.26617065947315
 40
0.2437848762826462
  0
CIRCLE
  8
_1-0_
  6
CONTINUOUS
 62
    7
 10
216.25292765877776
 20
184.71765468783718
 40
0.2437848762826462
  0
CIRCLE
  8
_1-0_
  6
CONTINUOUS
 62
    7
 10
217.59374447833233
 20
184.8395471259785
 40
0.2437848762826462
  0
CIRCLE
  8
_1-0_
  6
CONTINUOUS
 62
    7
 10
219.96590493871105
 20
184.09732691563485
 40
0.2437848762826462
  0
CIRCLE
  8
_1-0_
  6
CONTINUOUS
 62
    7
 10
220.75820578662967
 20
184.03638069656418
 40
0.2437848762826462
  0
CIRCLE
  8
_1-0_
  6
CONTINUOUS
 62
    7
 10
220.02685115778172
 20
185.01152020169479
 40
0.2437848762826462
  0
CIRCLE
  8
_1-0_
  6
CONTINUOUS
 62
    7
 10
221.8552377299016
 20
184.46300423005883
 40
0.2437848762826462
  0
CIRCLE
  8
_1-0_
  6
CONTINUOUS
 62
    7
 10
223.19605454945616
 20
184.58489666820014
 40
0.2437848762826462
  0
CIRCLE
  8
_1-0_
  6
CONTINUOUS
 62
    7
 10
223.19147740390355
 20
184.35197737341321
 40
0.2437848762826462
  0
CIRCLE
  8
_1-0_
  6
CONTINUOUS
 62
    7
 10
223.98377825182217
 20
184.29103115434253
 40
0.2437848762826462
  0
CIRCLE
  8
_1-0_
  6
CONTINUOUS
 62
    7
 10
223.25242362297422
 20
185.26617065947315
 40
0.2437848762826462
  0
CIRCLE
  8
_1-0_
  6
CONTINUOUS
 62
    7
 10
225.0808101950941
 20
184.71765468783718
 40
0.2437848762826462
  0
CIRCLE
  8
_1-0_
  6
CONTINUOUS
 62
    7
 10
226.42162701464872
 20
184.8395471259785
 40
0.2437848762826462
  0
CIRCLE
  8
_1-0_
  6
CONTINUOUS
 62
    7
 10
224.80426363649985
 20
182.5694241689647
 40
0.2437848762826462
  0
CIRCLE
  8
_1-0_
  6
CONTINUOUS
 62
    7
 10
225.59656448441842
 20
182.50847794989403
 40
0.2437848762826462
  0
CIRCLE
  8
_1-0_
  6
CONTINUOUS
 62
    7
 10
224.86520985557047
 20
183.48361745502464
 40
0.2437848762826462
  0
CIRCLE
  8
_1-0_
  6
CONTINUOUS
 62
    7
 10
226.69359642769035
 20
182.93510148338868
 40
0.2437848762826462
  0
CIRCLE
  8
_1-0_
  6
CONTINUOUS
 62
    7
 10
222.42752603056852
 20
181.63570582377741
 40
0.2437848762826462
  0
CIRCLE
  8
_1-0_
  6
CONTINUOUS
 62
    7
 10
223.21982687848714
 20
181.57475960470674
 40
0.2437848762826462
  0
CIRCLE
  8
_1-0_
  6
CONTINUOUS
 62
    7
 10
222.48847224963919
 20
182.54989910983733
 40
0.2437848762826462
  0
CIRCLE
  8
_1-0_
  6
CONTINUOUS
 62
    7
 10
224.31685882175907
 20
182.00138313820139
 40
0.2437848762826462
  0
CIRCLE
  8
_1-0_
  6
CONTINUOUS
 62
    7
 10
225.65767564131363
 20
182.12327557634271
 40
0.2437848762826462
  0
CIRCLE
  8
_1-0_
  6
CONTINUOUS
 62
    7
 10
225.56821500983489
 20
184.60662783119156
 40
0.2437848762826462
  0
CIRCLE
  8
_1-0_
  6
CONTINUOUS
 62
    7
 10
226.36051585775351
 20
184.54568161212089
 40
0.2437848762826462
  0
CIRCLE
  8
_1-0_
  6
CONTINUOUS
 62
    7
 10
225.62916122890556
 20
185.5208211172515
 40
0.2437848762826462
  0
CIRCLE
  8
_1-0_
  6
CONTINUOUS
 62
    7
 10
225.14379758020431
 20
181.04152142229458
 40
0.2437848762826462
  0
CIRCLE
  8
_1-0_
  6
CONTINUOUS
 62
    7
 10
225.93609842812293
 20
180.98057520322391
 40
0.2437848762826462
  0
CIRCLE
  8
_1-0_
  6
CONTINUOUS
 62
    7
 10
225.20474379927498
 20
181.95571470835449
 40
0.2437848762826462
  0
CIRCLE
  8
_1-0_
  6
CONTINUOUS
 62
    7
 10
227.03313037139486
 20
181.40719873671856
 40
0.2437848762826462
  0
CIRCLE
  8
_1-0_
  6
CONTINUOUS
 62
    7
 10
201.29153803496496
 20
187.49266635267961
 40
0.2437848762826462
  0
CIRCLE
  8
_1-0_
  6
CONTINUOUS
 62
    7
 10
202.08383888288358
 20
187.43172013360893
 40
0.2437848762826462
  0
CIRCLE
  8
_1-0_
  6
CONTINUOUS
 62
    7
 10
201.35248425403563
 20
188.40685963873955
 40
0.2437848762826462
  0
CIRCLE
  8
_1-0_
  6
CONTINUOUS
 62
    7
 10
203.18087082615551
 20
187.85834366710358
 40
0.2437848762826462
  0
CIRCLE
  8
_1-0_
  6
CONTINUOUS
 62
    7
 10
204.52168764571007
 20
187.9802361052449
 40
0.2437848762826462
  0
CIRCLE
  8
_1-0_
  6
CONTINUOUS
 62
    7
 10
200.86712060533438
 20
193.01009293787729
 40
0.2437848762826462
  0
CIRCLE
  8
_1-0_
  6
CONTINUOUS
 62
    7
 10
201.65942145325295
 20
192.94914671880665
 40
0.2437848762826462
  0
CIRCLE
  8
_1-0_
  6
CONTINUOUS
 62
    7
 10
200.92806682440499
 20
193.92428622393726
 40
0.2437848762826462
  0
CIRCLE
  8
_1-0_
  6
CONTINUOUS
 62
    7
 10
202.75645339652488
 20
193.37577025230127
 40
0.2437848762826462
  0
CIRCLE
  8
_1-0_
  6
CONTINUOUS
 62
    7
 10
204.09727021607949
 20
193.49766269044261
 40
0.2437848762826462
  0
CIRCLE
  8
_1-0_
  6
CONTINUOUS
 62
    7
 10
203.44594564465672
 20
195.6439812526329
 40
0.2437848762826462
  0
CIRCLE
  8
_1-0_
  6
CONTINUOUS
 62
    7
 10
203.11286507471988
 20
195.81154212062108
 40
0.2437848762826462
  0
CIRCLE
  8
_1-0_
  6
CONTINUOUS
 62
    7
 10
204.20989701799181
 20
196.23816565411573
 40
0.2437848762826462
  0
CIRCLE
  8
_1-0_
  6
CONTINUOUS
 62
    7
 10
205.22849884910522
 20
194.11607850596278
 40
0.2437848762826462
  0
CIRCLE
  8
_1-0_
  6
CONTINUOUS
 62
    7
 10
204.89541827916838
 20
194.28363937395096
 40
0.2437848762826462
  0
CIRCLE
  8
_1-0_
  6
CONTINUOUS
 62
    7
 10
205.99245022244031
 20
194.71026290744561
 40
0.2437848762826462
  0
CIRCLE
  8
_1-0_
  6
CONTINUOUS
 62
    7
 10
214.39591532912607
 20
190.21143815336131
 40
0.2437848762826462
  0
CIRCLE
  8
_1-0_
  6
CONTINUOUS
 62
    7
 10
214.06283475918917
 20
190.3789990213495
 40
0.2437848762826462
  0
CIRCLE
  8
_1-0_
  6
CONTINUOUS
 62
    7
 10
215.1598667024611
 20
190.80562255484415
 40
0.2437848762826462
  0
CIRCLE
  8
_1-0_
  6
CONTINUOUS
 62
    7
 10
220.84706025951107
 20
186.0521473429815
 40
0.2437848762826462
  0
CIRCLE
  8
_1-0_
  6
CONTINUOUS
 62
    7
 10
220.51397968957423
 20
186.21970821096969
 40
0.2437848762826462
  0
CIRCLE
  8
_1-0_
  6
CONTINUOUS
 62
    7
 10
221.61101163284616
 20
186.64633174446433
 40
0.2437848762826462
  0
CIRCLE
  8
_1-0_
  6
CONTINUOUS
 62
    7
 10
227.05000810588535
 20
183.84297060503837
 40
0.2437848762826462
  0
CIRCLE
  8
_1-0_
  6
CONTINUOUS
 62
    7
 10
214.9900997306089
 20
181.0440216733405
 40
0.2437848762826462
  0
CIRCLE
  8
_1-0_
  6
CONTINUOUS
 62
    7
 10
214.65701916067201
 20
181.21158254132868
 40
0.2437848762826462
  0
CIRCLE
  8
_1-0_
  6
CONTINUOUS
 62
    7
 10
215.75405110394394
 20
181.6382060748233
 40
0.2437848762826462
  0
CIRCLE
  8
_1-0_
  6
CONTINUOUS
 62
    7
 10
204.12501353206568
 20
181.4684391029711
 40
0.2437848762826462
  0
CIRCLE
  8
_1-0_
  6
CONTINUOUS
 62
    7
 10
203.79193296212884
 20
181.63599997095929
 40
0.2437848762826462
  0
CIRCLE
  8
_1-0_
  6
CONTINUOUS
 62
    7
 10
204.88896490540077
 20
182.06262350445391
 40
0.2437848762826462
  0
CIRCLE
  8
_1-0_
  6
CONTINUOUS
 62
    7
 10
204.9738483913269
 20
186.56144825853821
 40
0.2437848762826462
  0
CIRCLE
  8
_1-0_
  6
CONTINUOUS
 62
    7
 10
204.64076782139
 20
186.72900912652639
 40
0.2437848762826462
  0
CIRCLE
  8
_1-0_
  6
CONTINUOUS
 62
    7
 10
205.73779976466193
 20
187.15563266002104
 40
0.2437848762826462
  0
CIRCLE
  8
_1-0_
  6
CONTINUOUS
 62
    7
 10
193.59946127722696
 20
183.25099230741955
 40
0.2437848762826462
  0
LINE
  8
_1-0_
  6
CONTINUOUS
 62
    7
 10
199.33661452233963
 20
190.58228468608257
 11
146.06148265181452
 21
172.55758782254873
  0
LINE
  8
_1-0_
  6
CONTINUOUS
 62
    7
 10
199.33661452233963
 20
190.58228468608257
 11
203.82342293626022
 21
177.32075020892185
  0
LINE
  8
_1-0_
  6
CONTINUOUS
 62
    7
 10
220.76956873932772
 20
190.58228468608257
 11
216.28276032540714
 21
177.32075020892185
  0
LINE
  8
_1-0_
  6
CONTINUOUS
 62
    7
 10
220.76956873932772
 20
190.58228468608257
 11
274.04470060985284
 21
172.55758782254873
  0
CIRCLE
  8
_1-2_
  6
CONTINUOUS
 62
    7
 10
204.89495116696153
 20
193.48732723342346
 40
0.1903721649904509
  0
CIRCLE
  8
_1-2_
  6
CONTINUOUS
 62
    7
 10
205.70263186401601
 20
195.50653516205523
 40
0.1903721649904509
  0
CIRCLE
  8
_1-2_
  6
CONTINUOUS
 62
    7
 10
203.95265083440242
 20
195.50653516205523
 40
0.1903721649904509
  0
CIRCLE
  8
_1-2_
  6
CONTINUOUS
 62
    7
 10
206.51031256107049
 20
190.25661681719669
 40
0.1903721649904509
  0
CIRCLE
  8
_1-2_
  6
CONTINUOUS
 62
    7
 10
205.16417806597971
 20
183.79517124076088
 40
0.1903721649904509
  0
CIRCLE
  8
_1-2_
  6
CONTINUOUS
 62
    7
 10
208.66412775321575
 20
184.46823230231072
 40
0.1903721649904509
  0
CIRCLE
  8
_1-2_
  6
CONTINUOUS
 62
    7
 10
205.56801222851138
 20
185.00668610034703
 40
0.1903721649904509
  0
CIRCLE
  8
_1-2_
  6
CONTINUOUS
 62
    7
 10
202.20268217677994
 20
195.50653516205523
 40
0.1903721649904509
  0
CIRCLE
  8
_1-2_
  6
CONTINUOUS
 62
    7
 10
200.7219280461845
 20
196.04498896009153
 40
0.1903721649904509
  0
CIRCLE
  8
_1-2_
  6
CONTINUOUS
 62
    7
 10
199.77964008561653
 20
196.58344275812786
 40
0.1903721649904509
  0
CIRCLE
  8
_1-2_
  6
CONTINUOUS
 62
    7
 10
196.14508313486695
 20
195.10268862753242
 40
0.1903721649904509
  0
CIRCLE
  8
_1-2_
  6
CONTINUOUS
 62
    7
 10
201.79883564225716
 20
196.71805002164137
 40
0.1903721649904509
  0
CIRCLE
  8
_1-2_
  6
CONTINUOUS
 62
    7
 10
214.31788026060596
 20
198.06418451673215
 40
0.1903721649904509
  0
CIRCLE
  8
_1-2_
  6
CONTINUOUS
 62
    7
 10
213.91405847006541
 20
193.62194686892812
 40
0.1903721649904509
  0
CIRCLE
  8
_1-2_
  6
CONTINUOUS
 62
    7
 10
214.04866573357893
 20
187.42972819151046
 40
0.1903721649904509
  0
CIRCLE
  8
_1-2_
  6
CONTINUOUS
 62
    7
 10
214.04866573357893
 20
186.48742785895135
 40
0.1903721649904509
  0
CIRCLE
  8
_1-2_
  6
CONTINUOUS
 62
    7
 10
214.31788026060596
 20
189.04508958561942
 40
0.1903721649904509
  0
CIRCLE
  8
_1-2_
  6
CONTINUOUS
 62
    7
 10
213.37559230003797
 20
189.58354338365572
 40
0.1903721649904509
  0
CIRCLE
  8
_1-2_
  6
CONTINUOUS
 62
    7
 10
211.89485054143367
 20
187.69896746251976
 40
0.1903721649904509
  0
CIRCLE
  8
_1-2_
  6
CONTINUOUS
 62
    7
 10
208.39491322618875
 20
186.6220598664471
 40
0.1903721649904509
  0
CIRCLE
  8
_1-2_
  6
CONTINUOUS
 62
    7
 10
208.39491322618875
 20
185.67975953388799
 40
0.1903721649904509
  0
CIRCLE
  8
_1-2_
  6
CONTINUOUS
 62
    7
 10
210.81794294536104
 20
185.14130573585169
 40
0.1903721649904509
  0
CIRCLE
  8
_1-2_
  6
CONTINUOUS
 62
    7
 10
210.14488188381119
 20
187.69896746251976
 40
0.1903721649904509
  0
CIRCLE
  8
_1-2_
  6
CONTINUOUS
 62
    7
 10
211.491016378902
 20
184.33362503879721
 40
0.1903721649904509
  0
CIRCLE
  8
_1-2_
  6
CONTINUOUS
 62
    7
 10
211.491016378902
 20
183.39132470623807
 40
0.1903721649904509
  0
CIRCLE
  8
_1-2_
  6
CONTINUOUS
 62
    7
 10
213.91404609807429
 20
182.85287090820177
 40
0.1903721649904509
  0
CIRCLE
  8
_1-2_
  6
CONTINUOUS
 62
    7
 10
213.24098503652445
 20
185.41053263486984
 40
0.1903721649904509
  0
CIRCLE
  8
_1-2_
  6
CONTINUOUS
 62
    7
 10
211.76023090592903
 20
185.94898643290614
 40
0.1903721649904509
  0
CIRCLE
  8
_1-2_
  6
CONTINUOUS
 62
    7
 10
210.81794294536104
 20
186.48744023094247
 40
0.1903721649904509
  0
CIRCLE
  8
_1-2_
  6
CONTINUOUS
 62
    7
 10
212.83713850200166
 20
186.62204749445598
 40
0.1903721649904509
  0
CIRCLE
  8
_1-2_
  6
CONTINUOUS
 62
    7
 10
212.29868470396534
 20
183.39133707822921
 40
0.1903721649904509
  0
CIRCLE
  8
_1-2_
  6
CONTINUOUS
 62
    7
 10
214.31788026060596
 20
183.52594434174273
 40
0.1903721649904509
  0
CIRCLE
  8
_1-2_
  6
CONTINUOUS
 62
    7
 10
220.51009893802362
 20
197.66035035420049
 40
0.1903721649904509
  0
CIRCLE
  8
_1-2_
  6
CONTINUOUS
 62
    7
 10
218.76013028040114
 20
197.66035035420049
 40
0.1903721649904509
  0
CIRCLE
  8
_1-2_
  6
CONTINUOUS
 62
    7
 10
217.2793761498057
 20
198.19880415223682
 40
0.1903721649904509
  0
CIRCLE
  8
_1-2_
  6
CONTINUOUS
 62
    7
 10
216.33708818923773
 20
198.73725795027312
 40
0.1903721649904509
  0
CIRCLE
  8
_1-2_
  6
CONTINUOUS
 62
    7
 10
218.35628374587836
 20
198.87186521378663
 40
0.1903721649904509
  0
CIRCLE
  8
_1-2_
  6
CONTINUOUS
 62
    7
 10
203.95266320639354
 20
198.73725795027312
 40
0.1903721649904509
  0
CIRCLE
  8
_1-2_
  6
CONTINUOUS
 62
    7
 10
203.95266320639354
 20
197.794957617714
 40
0.1903721649904509
  0
CIRCLE
  8
_1-2_
  6
CONTINUOUS
 62
    7
 10
200.9911673171938
 20
196.17960859559619
 40
0.1903721649904509
  0
CIRCLE
  8
_1-2_
  6
CONTINUOUS
 62
    7
 10
199.24119865957132
 20
196.17960859559619
 40
0.1903721649904509
  0
CIRCLE
  8
_1-2_
  6
CONTINUOUS
 62
    7
 10
197.76044452897591
 20
196.71806239363249
 40
0.1903721649904509
  0
CIRCLE
  8
_1-2_
  6
CONTINUOUS
 62
    7
 10
198.83735212504854
 20
197.39112345518234
 40
0.1903721649904509
  0
CIRCLE
  8
_1-2_
  6
CONTINUOUS
 62
    7
 10
208.26028121869297
 20
186.89128676546528
 40
0.1903721649904509
  0
CIRCLE
  8
_1-2_
  6
CONTINUOUS
 62
    7
 10
204.76034390344802
 20
185.81437916939265
 40
0.1903721649904509
  0
CIRCLE
  8
_1-2_
  6
CONTINUOUS
 62
    7
 10
204.76034390344802
 20
184.87207883683351
 40
0.1903721649904509
  0
CIRCLE
  8
_1-2_
  6
CONTINUOUS
 62
    7
 10
206.51031256107049
 20
186.89128676546528
 40
0.1903721649904509
  0
CIRCLE
  8
_1-2_
  6
CONTINUOUS
 62
    7
 10
205.02955843047505
 20
187.42974056350158
 40
0.1903721649904509
  0
CIRCLE
  8
_1-2_
  6
CONTINUOUS
 62
    7
 10
206.10646602654768
 20
188.10280162505143
 40
0.1903721649904509
  0
CIRCLE
  8
_1-2_
  6
CONTINUOUS
 62
    7
 10
204.49111700442987
 20
188.91048232210591
 40
0.1903721649904509
  0
CIRCLE
  8
_1-2_
  6
CONTINUOUS
 62
    7
 10
204.49111700442987
 20
187.96818198954676
 40
0.1903721649904509
  0
CIRCLE
  8
_1-2_
  6
CONTINUOUS
 62
    7
 10
206.24108566205234
 20
189.98738991817854
 40
0.1903721649904509
  0
CIRCLE
  8
_1-2_
  6
CONTINUOUS
 62
    7
 10
204.7603315314569
 20
190.52584371621484
 40
0.1903721649904509
  0
CIRCLE
  8
_1-2_
  6
CONTINUOUS
 62
    7
 10
205.83723912752953
 20
191.19890477776468
 40
0.1903721649904509
  0
CIRCLE
  8
_1-2_
  6
CONTINUOUS
 62
    7
 10
205.29879770148435
 20
189.71815064716924
 40
0.1903721649904509
  0
CIRCLE
  8
_1-2_
  6
CONTINUOUS
 62
    7
 10
204.6257366399345
 20
192.27581237383731
 40
0.1903721649904509
  0
CIRCLE
  8
_1-2_
  6
CONTINUOUS
 62
    7
 10
214.18328536908359
 20
190.66045097972835
 40
0.1903721649904509
  0
CIRCLE
  8
_1-2_
  6
CONTINUOUS
 62
    7
 10
193.18358724566718
 20
189.58354338365572
 40
0.1903721649904509
  0
CIRCLE
  8
_1-2_
  6
CONTINUOUS
 62
    7
 10
193.58742140819888
 20
190.3912240807102
 40
0.1903721649904509
  0
CIRCLE
  8
_1-2_
  6
CONTINUOUS
 62
    7
 10
194.39510210525336
 20
191.46813167678283
 40
0.1903721649904509
  0
CIRCLE
  8
_1-2_
  6
CONTINUOUS
 62
    7
 10
194.66432900427151
 20
189.44892374815109
 40
0.1903721649904509
  0
CIRCLE
  8
_1-2_
  6
CONTINUOUS
 62
    7
 10
194.12587520623518
 20
193.89117376794627
 40
0.1903721649904509
  0
CIRCLE
  8
_1-2_
  6
CONTINUOUS
 62
    7
 10
213.77942646256966
 20
200.48722660789559
 40
0.1903721649904509
  0
CIRCLE
  8
_1-2_
  6
CONTINUOUS
 62
    7
 10
212.02945780494719
 20
200.48722660789559
 40
0.1903721649904509
  0
CIRCLE
  8
_1-2_
  6
CONTINUOUS
 62
    7
 10
207.45260052163849
 20
199.81416554634578
 40
0.1903721649904509
  0
CIRCLE
  8
_1-2_
  6
CONTINUOUS
 62
    7
 10
205.70263186401601
 20
199.81416554634578
 40
0.1903721649904509
  0
CIRCLE
  8
_1-2_
  6
CONTINUOUS
 62
    7
 10
204.22187773342057
 20
200.35261934438208
 40
0.1903721649904509
  0
CIRCLE
  8
_1-2_
  6
CONTINUOUS
 62
    7
 10
203.27958977285257
 20
200.89107314241841
 40
0.1903721649904509
  0
CIRCLE
  8
_1-2_
  6
CONTINUOUS
 62
    7
 10
205.2987853294932
 20
201.02568040593192
 40
0.1903721649904509
  0
LINE
  8
_1-2_
  6
CONTINUOUS
 62
    7
 10
229.19261385039692
 20
187.78684571552861
 11
237.05308418401179
 21
186.78689190429552
  0
LINE
  8
_1-2_
  6
CONTINUOUS
 62
    7
 10
183.05309160720648
 20
186.78684241633098
 11
190.91357431281247
 21
187.78684571552861
  0
ARC
  8
_1-2_
  6
CONTINUOUS
 62
    7
 10
210.05309408160471
 20
182.3657856173445
 40
23.421057623785899
 50
12.185165405273436
 51
167.9019775390625
  0
LINE
  8
_1-2_
  6
CONTINUOUS
 62
    7
 10
208.23587949806688
 20
210.1023215038627
 11
208.75512819783876
 21
210.1023215038627
  0
LINE
  8
_1-2_
  6
CONTINUOUS
 62
    7
 10
212.05606636067421
 20
210.1023215038627
 11
212.05606636067421
 21
209.71340212665689
  0
ARC
  8
_1-2_
  6
CONTINUOUS
 62
    7
 10
210.05309408160471
 20
182.4390278048445
 40
27.347822447080876
 50
94.658028171830239
 51
170.85218811035156
  0
ARC
  8
_1-2_
  6
CONTINUOUS
 62
    7
 10
210.05309408160471
 20
182.4390278048445
 40
27.347822447080876
 50
9.1478271484375
 51
94.628894347421735
  0
ARC
  8
_1-2_
  6
CONTINUOUS
 62
    7
 10
210.05309408160471
 20
182.4390278048445
 40
27.347822447080876
 50
94.628894347421735
 51
94.658028171830239
  0
LINE
  8
_1-2_
  6
CONTINUOUS
 62
    7
 10
208.23587949806688
 20
210.1023215038627
 11
208.23587949806688
 21
209.72640810699954
  0
CIRCLE
  8
_1-2_
  6
CONTINUOUS
 62
    7
 10
227.75614383899403
 20
187.82995758658058
 40
0.1903721649904509
  0
LINE
  8
_1-0_
  6
CONTINUOUS
 62
    7
 10
208.85310746698229
 20
210.61827702450313
 11
211.2531005386673
 21
210.61827702450313
  0
LINE
  8
_1-0_
  6
CONTINUOUS
 62
    7
 10
210.15377489466391
 20
211.39511434766612
 11
192.45591376449079
 21
246.26503170966089
  0
ARC
  8
_1-0_
  6
CONTINUOUS
 62
    7
 10
210.05311637481594
 20
210.1546985167962
 40
1.2864322920103335
 50
21.122879028320316
 51
158.87712097167969
  0
LINE
  8
_1-2_
  6
CONTINUOUS
 62
    7
 10
212.05606636067421
 20
210.1023215038627
 11
208.23587949806688
 21
210.1023215038627
  0
LINE
  8
_1-0_
  6
CONTINUOUS
 62
    7
 10
208.85310746698229
 20
210.61827702450313
 11
208.85310746698229
 21
210.1023215038627
  0
LINE
  8
_1-0_
  6
CONTINUOUS
 62
    7
 10
211.2531005386673
 20
210.61827702450313
 11
211.2531005386673
 21
210.1023215038627
  0
LINE
  8
_1-0_
  6
DASHED1
 62
    7
 10
209.45309954890797
 20
210.05708350676665
 11
209.45309954890797
 21
194.03608015033188
  0
LINE
  8
_1-0_
  6
DASHED1
 62
    7
 10
210.65310845674162
 20
194.14286280579006
 11
210.65310845674162
 21
210.00660578294907
  0
CIRCLE
  8
_1-0_
  6
CONTINUOUS
 62
    7
 10
217.87457497042874
 20
193.57196823929058
 40
0.2437848762826462
  0
CIRCLE
  8
_1-0_
  6
CONTINUOUS
 62
    7
 10
217.87457497042874
 20
193.72080503653092
 40
0.2437848762826462
  0
CIRCLE
  8
_1-0_
  6
CONTINUOUS
 62
    7
 10
200.8220956993074
 20
197.48149868399148
 40
0.2437848762826462
  0
CIRCLE
  8
_1-0_
  6
CONTINUOUS
 62
    7
 10
203.56467555748719
 20
198.03001465562744
 40
0.2437848762826462
  0
CIRCLE
  8
_1-0_
  6
CONTINUOUS
 62
    7
 10
202.95521336678058
 20
198.63947684633408
 40
0.2437848762826462
  0
CIRCLE
  8
_1-0_
  6
CONTINUOUS
 62
    7
 10
201.85818142350865
 20
197.90812221748612
 40
0.2437848762826462
  0
CIRCLE
  8
_1-0_
  6
CONTINUOUS
 62
    7
 10
201.91912764257933
 20
198.82231550354606
 40
0.2437848762826462
  0
CIRCLE
  8
_1-0_
  6
CONTINUOUS
 62
    7
 10
202.22385873793263
 20
199.12704659889937
 40
0.2437848762826462
  0
CIRCLE
  8
_1-0_
  6
CONTINUOUS
 62
    7
 10
220.31971613778902
 20
194.80243633366575
 40
0.2437848762826462
  0
CIRCLE
  8
_1-0_
  6
CONTINUOUS
 62
    7
 10
223.06229599596881
 20
195.35095230530172
 40
0.2437848762826462
  0
CIRCLE
  8
_1-0_
  6
CONTINUOUS
 62
    7
 10
222.4528338052622
 20
195.96041449600835
 40
0.2437848762826462
  0
CIRCLE
  8
_1-0_
  6
CONTINUOUS
 62
    7
 10
221.35580186199027
 20
195.2290598671604
 40
0.2437848762826462
  0
CIRCLE
  8
_1-0_
  6
CONTINUOUS
 62
    7
 10
221.41674808106094
 20
196.14325315322034
 40
0.2437848762826462
  0
CIRCLE
  8
_1-0_
  6
CONTINUOUS
 62
    7
 10
221.72147917641425
 20
196.44798424857365
 40
0.2437848762826462
  0
CIRCLE
  8
_1-0_
  6
CONTINUOUS
 62
    7
 10
223.07319688673488
 20
192.71872117230131
 40
0.2437848762826462
  0
CIRCLE
  8
_1-0_
  6
CONTINUOUS
 62
    7
 10
225.81577674491467
 20
193.26723714393728
 40
0.2437848762826462
  0
CIRCLE
  8
_1-0_
  6
CONTINUOUS
 62
    7
 10
225.20631455420806
 20
193.87669933464389
 40
0.2437848762826462
  0
CIRCLE
  8
_1-0_
  6
CONTINUOUS
 62
    7
 10
224.10928261093613
 20
193.14534470579594
 40
0.2437848762826462
  0
CIRCLE
  8
_1-0_
  6
CONTINUOUS
 62
    7
 10
224.17022883000681
 20
194.0595379918559
 40
0.2437848762826462
  0
CIRCLE
  8
_1-0_
  6
CONTINUOUS
 62
    7
 10
224.47495992536011
 20
194.36426908720921
 40
0.2437848762826462
  0
CIRCLE
  8
_1-0_
  6
CONTINUOUS
 62
    7
 10
197.17559416691961
 20
193.68616035436338
 40
0.2437848762826462
  0
CIRCLE
  8
_1-0_
  6
CONTINUOUS
 62
    7
 10
199.9181740250994
 20
194.23467632599935
 40
0.2437848762826462
  0
CIRCLE
  8
_1-0_
  6
CONTINUOUS
 62
    7
 10
199.3087118343928
 20
194.84413851670598
 40
0.2437848762826462
  0
CIRCLE
  8
_1-0_
  6
CONTINUOUS
 62
    7
 10
198.21167989112087
 20
194.11278388785803
 40
0.2437848762826462
  0
CIRCLE
  8
_1-0_
  6
CONTINUOUS
 62
    7
 10
198.27262611019154
 20
195.02697717391794
 40
0.2437848762826462
  0
CIRCLE
  8
_1-0_
  6
CONTINUOUS
 62
    7
 10
198.57735720554484
 20
195.33170826927125
 40
0.2437848762826462
  0
CIRCLE
  8
_1-0_
  6
CONTINUOUS
 62
    7
 10
210.49648751992805
 20
198.82102985915435
 40
0.2437848762826462
  0
CIRCLE
  8
_1-0_
  6
CONTINUOUS
 62
    7
 10
213.23906737810785
 20
199.36954583079032
 40
0.2437848762826462
  0
CIRCLE
  8
_1-0_
  6
CONTINUOUS
 62
    7
 10
212.62960518740124
 20
199.97900802149692
 40
0.2437848762826462
  0
CIRCLE
  8
_1-0_
  6
CONTINUOUS
 62
    7
 10
211.53257324412931
 20
199.24765339264897
 40
0.2437848762826462
  0
CIRCLE
  8
_1-0_
  6
CONTINUOUS
 62
    7
 10
211.59351946319998
 20
200.16184667870891
 40
0.2437848762826462
  0
CIRCLE
  8
_1-0_
  6
CONTINUOUS
 62
    7
 10
211.89825055855329
 20
200.46657777406222
 40
0.2437848762826462
  0
CIRCLE
  8
_1-0_
  6
CONTINUOUS
 62
    7
 10
206.7755675889201
 20
199.93730583845672
 40
0.2437848762826462
  0
CIRCLE
  8
_1-0_
  6
CONTINUOUS
 62
    7
 10
209.51814744709989
 20
200.48582181009269
 40
0.2437848762826462
  0
CIRCLE
  8
_1-0_
  6
CONTINUOUS
 62
    7
 10
208.90868525639328
 20
201.09528400079932
 40
0.2437848762826462
  0
CIRCLE
  8
_1-0_
  6
CONTINUOUS
 62
    7
 10
207.81165331312135
 20
200.36392937195137
 40
0.2437848762826462
  0
CIRCLE
  8
_1-0_
  6
CONTINUOUS
 62
    7
 10
207.87259953219203
 20
201.27812265801128
 40
0.2437848762826462
  0
CIRCLE
  8
_1-0_
  6
CONTINUOUS
 62
    7
 10
208.17733062754533
 20
201.58285375336459
 40
0.2437848762826462
  0
ARC
  8
_1-2_
  6
CONTINUOUS
 62
    2
 10
254.2191893306094
 20
183.04578745067971
 40
26.820064420598257
 50
164.67325288126818
 51
188.80052631666445
  0
ARC
  8
_1-2_
  6
CONTINUOUS
 62
    2
 10
175.48587263857758
 20
183.90302166734946
 40
17.229813350350231
 50
342.73571905359461
 51
20.298132588723394
  0
LINE
  8
_1-0_
  6
CONTINUOUS
 62
    7
 10
220.43692407252968
 20
201.97890877369937
 11
232.70125859662761
 21
229.05069273689907
  0
ENDSEC
  0
EOF
