  0
SECTION
  2
HEADER
  9
$ACADVER
  1
AC1009
  9
$INSBASE
 10
0
 20
0
 30
0
  9
$EXTMIN
 10
0
 20
0
  9
$EXTMAX
 10
420
 20
297
  9
$LIMMIN
 10
0
 20
0
  9
$LIMMAX
 10
420
 20
297
  9
$LTSCALE
 40
1
  0
ENDSEC
  0
SECTION
  2
TABLES
  0
TABLE
  2
LTYPE
 70
     9
  0
LTYPE
  2
CONTINUOUS
 70
    64
  3
実線
 72
    65
 73
     0
 40
0.0
  0
LTYPE
  2
DASHED1
 70
    64
  3
--  --  --  --  --  --  --  --  
 72
    65
 73
     2
 40
2.5
 49
1.25
 49
-1.25
  0
LTYPE
  2
DASHED2
 70
    64
  3
----    ----    ----    ----    
 72
    65
 73
     2
 40
5.0
 49
2.5
 49
-2.5
  0
LTYPE
  2
DASHED3
 70
    64
  3
------  ------  ------  ------  
 72
    65
 73
     2
 40
5.0
 49
3.75
 49
-1.25
  0
LTYPE
  2
CENTER1
 70
    64
  3
----- - ----- - ----- - ----- - 
 72
    65
 73
     4
 40
10.0
 49
6.25
 49
-1.25
 49
1.25
 49
-1.25
  0
LTYPE
  2
CENTER2
 70
    64
  3
----------  --  ----------  --  
 72
    65
 73
     4
 40
20.0
 49
12.5
 49
-2.5
 49
2.5
 49
-2.5
  0
LTYPE
  2
PHANTOM1
 70
    64
  3
--- - - --- - - --- - - --- - - 
 72
    65
 73
     6
 40
10.0
 49
3.25
 49
-1.25
 49
1.25
 49
-1.25
 49
1.25
 49
-1.25
  0
LTYPE
  2
PHANTOM2
 70
    64
  3
--------  -  -  --------  -  -  
 72
    65
 73
     6
 40
20.0
 49
10.0
 49
-2.5
 49
1.25
 49
-2.5
 49
1.25
 49
-2.5
  0
LTYPE
  2
DOT
 70
    64
  3
-   -   -   -   -   -   -   -   
 72
    65
 73
     2
 40
2.5
 49
0.625
 49
-1.875
  0
LTYPE
  2
DUMMY
 70
    64
  3
ダミー
 72
    65
 73
     0
 40
0.0
  0
LTYPE
  2
RAND1
 70
    64
  3
ランダム線1
 72
    65
 73
     4
 40
10.0
 49
1.0
 49
-2.0
 49
3.0
 49
-4.0
  0
LTYPE
  2
RAND2
 70
    64
  3
ランダム線2
 72
    65
 73
     4
 40
14.0
 49
2.0
 49
-3.0
 49
4.0
 49
-5.0
  0
LTYPE
  2
RAND3
 70
    64
  3
ランダム線3
 72
    65
 73
     4
 40
18.0
 49
3.0
 49
-4.0
 49
5.0
 49
-6.0
  0
LTYPE
  2
RAND4
 70
    64
  3
ランダム線4
 72
    65
 73
     4
 40
22.0
 49
4.0
 49
-5.0
 49
6.0
 49
-7.0
  0
LTYPE
  2
RAND5
 70
    64
  3
ランダム線5
 72
    65
 73
     4
 40
26.0
 49
5.0
 49
-6.0
 49
7.0
 49
-8.0
  0
LTYPE
  2
LONG1
 70
    64
  3
----------  --  ----------  --  
 72
    65
 73
     4
 40
40.0
 49
32.5
 49
-2.5
 49
2.5
 49
-2.5
  0
LTYPE
  2
LONG2
 70
    64
  3
--------  -  -  --------  -  -  
 72
    65
 73
     6
 40
40.0
 49
30.0
 49
-2.5
 49
1.25
 49
-2.5
 49
1.25
 49
-2.5
  0
LTYPE
  2
LONG3
 70
    64
  3
+++++++++++++++..+++++++++++++++
 72
    65
 73
     2
 40
40.0
 49
37.5
 49
-2.5
  0
LTYPE
  2
LONG4
 70
    64
  3
+++++++++++++++..+++++++++++++++
 72
    65
 73
     2
 40
80.0
 49
75.0
 49
-5.0
  0
LTYPE
  2
LONG5
 70
    64
  3
----------  --  ----------  --  
 72
    65
 73
     4
 40
60.0
 49
37.5
 49
-7.5
 49
7.5
 49
-7.5
  0
LTYPE
  2
dashed
 70
   64
  3
-------   -------------   ------
 72
   65
 73
    2
 40
7.5
 49
6
 49
-1.5
  0
LTYPE
  2
dashed_spaced
 70
   64
  3
----        --------        ----
 72
   65
 73
    2
 40
12
 49
6
 49
-6
  0
LTYPE
  2
long_dashed_dotted
 70
   64
  3
------------- --- --------------
 72
   65
 73
    4
 40
15.25
 49
12
 49
-1.5
 49
0.25
 49
-1.5
  0
LTYPE
  2
long_dashed_double-dotted
 70
   64
  3
----------- --- --- ------------
 72
   65
 73
    6
 40
17
 49
12
 49
-1.5
 49
0.25
 49
-1.5
 49
0.25
 49
-1.5
  0
LTYPE
  2
long_dashed_triplicate-dotted
 70
   64
  3
--------- --- --- --- ----------
 72
   65
 73
    8
 40
18.75
 49
12
 49
-1.5
 49
0.25
 49
-1.5
 49
0.25
 49
-1.5
 49
0.25
 49
-1.5
  0
LTYPE
  2
dotted
 70
   64
  3
   -       -       -       -    
 72
   65
 73
    2
 40
1.75
 49
0.25
 49
-1.5
  0
LTYPE
  2
chain
 70
   64
  3
-------------- -- --------------
 72
   65
 73
    4
 40
18.5
 49
12
 49
-1.5
 49
3.5
 49
-1.5
  0
LTYPE
  2
chain_double_dash
 70
   64
  3
------------ -- -- -------------
 72
   65
 73
    6
 40
23.5
 49
12
 49
-1.5
 49
3.5
 49
-1.5
 49
3.5
 49
-1.5
  0
LTYPE
  2
dashed_dotted
 70
   64
  3
-----------     -     ----------
 72
   65
 73
    4
 40
9.25
 49
6
 49
-1.5
 49
0.25
 49
-1.5
  0
LTYPE
  2
double-dashed_dotted
 70
   64
  3
------   -----------   -   -----
 72
   65
 73
    6
 40
16.75
 49
6
 49
-1.5
 49
6
 49
-1.5
 49
0.25
 49
-1.5
  0
LTYPE
  2
dashed_double-dotted
 70
   64
  3
---------    -    -    ---------
 72
   65
 73
    6
 40
11
 49
6
 49
-1.5
 49
0.25
 49
-1.5
 49
0.25
 49
-1.5
  0
LTYPE
  2
double-dashed_double-dotted
 70
   64
  3
-----   ---------   -   -   ----
 72
   65
 73
    8
 40
18.5
 49
6
 49
-1.5
 49
6
 49
-1.5
 49
0.25
 49
-1.5
 49
0.25
 49
-1.5
  0
LTYPE
  2
dashed_triplicate-dotted
 70
   64
  3
-------    -    -    -    ------
 72
   65
 73
    8
 40
12.75
 49
6
 49
-1.5
 49
0.25
 49
-1.5
 49
0.25
 49
-1.5
 49
0.25
 49
-1.5
  0
LTYPE
  2
double-dashed_triplicate-dotted
 70
   64
  3
-----  ---------  -  -  -  -----
 72
   65
 73
   10
 40
20.25
 49
6
 49
-1.5
 49
6
 49
-1.5
 49
0.25
 49
-1.5
 49
0.25
 49
-1.5
 49
0.25
 49
-1.5
  0
LTYPE
  2
undefined
 70
   64
  3
--------------------------------
 72
   65
 73
    0
 40
0
  0
ENDTAB
  0
TABLE
  2
STYLE
  5
3
100
AcDbSymbolTable
 70
     1
  0
STYLE
  5
10
100
AcDbSymbolTableRecord
100
AcDbTextStyleTableRecord
  2
STANDARD
 70
     0
 40
0.0
 41
1.0
 50
0.0
 71
     0
 42
0.2
  3
txt
  4
bigfont.shx
  0
STYLE
  5
26
100
AcDbSymbolTableRecord
100
AcDbTextStyleTableRecord
  2
TATEGAKI
 70
    68
 40
0.0
 41
1.0
 50
0.0
 71
     0
 42
1.0
  3
txt
  4
bigfont.shx
  0
ENDTAB
  0
TABLE
  2
LAYER
 70
    6
  0
LAYER
  2
_0-1_
 70
   64
 62
    7
  6
CONTINUOUS
  0
LAYER
  2
_0-a_
 70
   64
 62
    7
  6
CONTINUOUS
  0
LAYER
  2
_1-0_
 70
   64
 62
    7
  6
CONTINUOUS
  0
LAYER
  2
_1-1_
 70
   64
 62
    7
  6
CONTINUOUS
  0
LAYER
  2
_1-2_
 70
   64
 62
    7
  6
CONTINUOUS
  0
LAYER
  2
ADD_LINE
 70
   64
 62
    7
  6
CONTINUOUS
  0
ENDTAB
  0
ENDSEC
  0
SECTION
  2
BLOCKS
  0
ENDSEC
  0
SECTION
  2
ENTITIES
  0
ARC
  8
_1-1_
  6
CONTINUOUS
 62
    7
 10
92.293170438297949
 20
159.5334616657704
 40
23.979474531055075
 50
40.177537291073364
 51
84.444395906862681
  0
LINE
  8
_1-1_
  6
CONTINUOUS
 62
    7
 10
94.614664465221068
 20
186.95165394913454
 11
94.614664465221068
 21
183.40029774155721
  0
ARC
  8
_1-1_
  6
CONTINUOUS
 62
    7
 10
93.069664465221081
 20
167.02068279589889
 40
19.990763770079191
 50
58.16373644885514
 51
85.567435898676678
  0
LINE
  8
_1-0_
  6
CONTINUOUS
 62
    7
 10
140.87026235219597
 20
155.05945154138513
 11
140.87026235219597
 21
167.05945401578336
  0
LINE
  8
_1-0_
  6
CONTINUOUS
 62
    7
 10
140.87026235219597
 20
167.05945401578336
 11
152.87026482659419
 21
167.05945401578336
  0
LINE
  8
_1-0_
  6
CONTINUOUS
 62
    7
 10
152.87026482659419
 20
167.05945401578336
 11
152.87026482659419
 21
155.05945154138513
  0
LINE
  8
_1-0_
  6
CONTINUOUS
 62
    7
 10
152.87026482659419
 20
155.05945154138513
 11
140.87026235219597
 21
155.05945154138513
  0
LINE
  8
_1-0_
  6
CONTINUOUS
 62
    7
 10
152.87026482659419
 20
167.05945401578336
 11
140.87026235219597
 21
155.05945154138513
  0
LINE
  8
_1-0_
  6
CONTINUOUS
 62
    7
 10
201.47025443412164
 20
155.05945154138513
 11
201.47025443412164
 21
167.05945401578336
  0
LINE
  8
_1-0_
  6
CONTINUOUS
 62
    7
 10
201.47025443412164
 20
167.05945401578336
 11
213.47024453652872
 21
167.05945401578336
  0
LINE
  8
_1-0_
  6
CONTINUOUS
 62
    7
 10
213.47024453652872
 20
167.05945401578336
 11
213.47024453652872
 21
155.05945154138513
  0
LINE
  8
_1-0_
  6
CONTINUOUS
 62
    7
 10
213.47024453652872
 20
155.05945154138513
 11
201.47025443412164
 21
155.05945154138513
  0
LINE
  8
_1-0_
  6
CONTINUOUS
 62
    7
 10
213.47024453652872
 20
167.05945401578336
 11
201.47025443412164
 21
155.05945154138513
  0
LINE
  8
_1-0_
  6
CONTINUOUS
 62
    7
 10
262.07024651604729
 20
155.05945154138513
 11
262.07024651604729
 21
167.05945401578336
  0
LINE
  8
_1-0_
  6
CONTINUOUS
 62
    7
 10
262.07024651604729
 20
167.05945401578336
 11
274.07023661845443
 21
167.05945401578336
  0
LINE
  8
_1-0_
  6
CONTINUOUS
 62
    7
 10
274.07023661845443
 20
167.05945401578336
 11
274.07023661845443
 21
155.05945154138513
  0
LINE
  8
_1-0_
  6
CONTINUOUS
 62
    7
 10
274.07023661845443
 20
155.05945154138513
 11
262.07024651604729
 21
155.05945154138513
  0
LINE
  8
_1-0_
  6
CONTINUOUS
 62
    7
 10
274.07023661845443
 20
167.05945401578336
 11
262.07024651604729
 21
155.05945154138513
  0
LINE
  8
_1-0_
  6
CONTINUOUS
 62
    7
 10
322.67023859797297
 20
155.05945154138513
 11
322.67023859797297
 21
167.05945401578336
  0
LINE
  8
_1-0_
  6
CONTINUOUS
 62
    7
 10
322.67023859797297
 20
167.05945401578336
 11
334.67022870038011
 21
167.05945401578336
  0
LINE
  8
_1-0_
  6
CONTINUOUS
 62
    7
 10
334.67022870038011
 20
167.05945401578336
 11
334.67022870038011
 21
155.05945154138513
  0
LINE
  8
_1-0_
  6
CONTINUOUS
 62
    7
 10
334.67022870038011
 20
155.05945154138513
 11
322.67023859797297
 21
155.05945154138513
  0
LINE
  8
_1-0_
  6
CONTINUOUS
 62
    7
 10
334.67022870038011
 20
167.05945401578336
 11
322.67023859797297
 21
155.05945154138513
  0
LINE
  8
_1-0_
  6
CONTINUOUS
 62
    7
 10
383.27023067989865
 20
155.05945154138513
 11
383.27023067989865
 21
167.05945401578336
  0
LINE
  8
_1-0_
  6
CONTINUOUS
 62
    7
 10
391.09257053684547
 20
162.88180377032307
 11
383.27023067989865
 21
155.05945154138513
  0
LINE
  8
_1-0_
  6
CONTINUOUS
 62
    7
 10
383.27023067989865
 20
167.05945401578336
 11
391.09257053684547
 21
167.05945401578336
  0
LINE
  8
_1-0_
  6
CONTINUOUS
 62
    7
 10
383.27023067989865
 20
155.05945154138513
 11
391.09257053684547
 21
155.05945154138513
  0
LINE
  8
_1-0_
  6
CONTINUOUS
 62
    7
 10
147.47027422930745
 20
170.65946836729307
 11
147.47027422930745
 21
171.2594728212099
  0
LINE
  8
_1-0_
  6
CONTINUOUS
 62
    7
 10
147.47027422930745
 20
171.2594728212099
 11
152.27027274466852
 21
171.2594728212099
  0
LINE
  8
_1-0_
  6
CONTINUOUS
 62
    7
 10
152.27027274466852
 20
171.2594728212099
 11
152.27027274466852
 21
170.65946836729307
  0
LINE
  8
_1-0_
  6
CONTINUOUS
 62
    7
 10
152.27027274466852
 20
170.65946836729307
 11
147.47027422930745
 21
170.65946836729307
  0
LINE
  8
_1-0_
  6
CONTINUOUS
 62
    7
 10
147.47027422930745
 20
171.2594728212099
 11
152.27027274466852
 21
170.65946836729307
  0
LINE
  8
_1-0_
  6
CONTINUOUS
 62
    7
 10
208.07026631123313
 20
170.65946836729307
 11
208.07026631123313
 21
171.2594728212099
  0
LINE
  8
_1-0_
  6
CONTINUOUS
 62
    7
 10
208.07026631123313
 20
171.2594728212099
 11
212.87025245460305
 21
171.2594728212099
  0
LINE
  8
_1-0_
  6
CONTINUOUS
 62
    7
 10
212.87025245460305
 20
171.2594728212099
 11
212.87025245460305
 21
170.65946836729307
  0
LINE
  8
_1-0_
  6
CONTINUOUS
 62
    7
 10
212.87025245460305
 20
170.65946836729307
 11
208.07026631123313
 21
170.65946836729307
  0
LINE
  8
_1-0_
  6
CONTINUOUS
 62
    7
 10
208.07026631123313
 20
171.2594728212099
 11
212.87025245460305
 21
170.65946836729307
  0
LINE
  8
_1-0_
  6
CONTINUOUS
 62
    7
 10
268.6702583931588
 20
170.65946836729307
 11
268.6702583931588
 21
171.2594728212099
  0
LINE
  8
_1-0_
  6
CONTINUOUS
 62
    7
 10
268.6702583931588
 20
171.2594728212099
 11
273.47024453652875
 21
171.2594728212099
  0
LINE
  8
_1-0_
  6
CONTINUOUS
 62
    7
 10
273.47024453652875
 20
171.2594728212099
 11
273.47024453652875
 21
170.65946836729307
  0
LINE
  8
_1-0_
  6
CONTINUOUS
 62
    7
 10
273.47024453652875
 20
170.65946836729307
 11
268.6702583931588
 21
170.65946836729307
  0
LINE
  8
_1-0_
  6
CONTINUOUS
 62
    7
 10
268.6702583931588
 20
171.2594728212099
 11
273.47024453652875
 21
170.65946836729307
  0
LINE
  8
_1-0_
  6
CONTINUOUS
 62
    7
 10
329.27025047508448
 20
170.65946836729307
 11
329.27025047508448
 21
171.2594728212099
  0
LINE
  8
_1-0_
  6
CONTINUOUS
 62
    7
 10
329.27025047508448
 20
171.2594728212099
 11
334.07023661845443
 21
171.2594728212099
  0
LINE
  8
_1-0_
  6
CONTINUOUS
 62
    7
 10
334.07023661845443
 20
171.2594728212099
 11
334.07023661845443
 21
170.65946836729307
  0
LINE
  8
_1-0_
  6
CONTINUOUS
 62
    7
 10
334.07023661845443
 20
170.65946836729307
 11
329.27025047508448
 21
170.65946836729307
  0
LINE
  8
_1-0_
  6
CONTINUOUS
 62
    7
 10
329.27025047508448
 20
171.2594728212099
 11
334.07023661845443
 21
170.65946836729307
  0
LINE
  8
_1-0_
  6
CONTINUOUS
 62
    7
 10
389.87024255701016
 20
170.65946836729307
 11
389.87024255701016
 21
171.2594728212099
  0
LINE
  8
_1-0_
  6
CONTINUOUS
 62
    7
 10
391.09259528082771
 20
170.65946836729307
 11
389.87024255701016
 21
170.65946836729307
  0
LINE
  8
_1-0_
  6
CONTINUOUS
 62
    7
 10
389.87024255701016
 20
171.2594728212099
 11
391.09257053684547
 21
171.10667873073268
  0
LINE
  8
_1-0_
  6
CONTINUOUS
 62
    7
 10
389.87024255701016
 20
171.2594728212099
 11
391.09259528082771
 21
171.2594728212099
  0
LINE
  8
_1-2_
  6
CONTINUOUS
 62
    7
 10
205.69081074482688
 20
177.17077306798987
 11
237.31799976245779
 21
90.27581498429582
  0
LINE
  8
_1-2_
  6
CONTINUOUS
 62
    7
 10
237.31799976245779
 20
90.27581498429582
 11
243.24324324324326
 21
90.27581498429582
  0
LINE
  8
_0-1_
  6
CONTINUOUS
 62
    7
 10
224.57903062975086
 20
125.27581292229731
 11
243.24324324324326
 21
125.27581292229731
  0
LINE
  8
_0-1_
  6
CONTINUOUS
 62
    7
 10
227.12681950749578
 20
118.27581457189612
 11
243.24324324324326
 21
118.27581457189612
  0
LINE
  8
_0-1_
  6
CONTINUOUS
 62
    7
 10
229.674633129223
 20
111.27581622149494
 11
243.24324324324326
 21
111.27581622149494
  0
LINE
  8
_0-1_
  6
CONTINUOUS
 62
    7
 10
232.22242200696792
 20
104.27581787109375
 11
243.24324324324326
 21
104.27581787109375
  0
LINE
  8
_0-1_
  6
CONTINUOUS
 62
    7
 10
234.77021088471284
 20
97.275813334697006
 11
243.24324324324326
 21
97.275813334697006
  0
LINE
  8
_0-1_
  6
CONTINUOUS
 62
    7
 10
100.99296569824219
 20
126.94030349319047
 11
105.40540540540542
 21
126.94030349319047
  0
LINE
  8
_0-1_
  6
CONTINUOUS
 62
    7
 10
99.538130889067787
 20
89.557651829075169
 11
104.5945945945946
 21
89.557651829075169
  0
LINE
  8
_1-0_
  6
CONTINUOUS
 62
    3
 10
203.67025426916175
 20
174.25947034681167
 11
322.87021946262672
 21
174.25947034681167
  0
LINE
  8
_1-0_
  6
CONTINUOUS
 62
    3
 10
264.87025080500422
 20
174.25947034681167
 11
384.07025311444261
 21
174.25947034681167
  0
LINE
  8
_1-0_
  6
CONTINUOUS
 62
    3
 10
326.07025971283787
 20
174.25947034681167
 11
391.09257053684547
 21
174.25947034681167
  0
TEXT
  8
_0-1_
 62
    7
 10
108.42644768792231
 20
125.29294813001479
 40
3
 41
1
 50
0
  1
捨水切
  0
TEXT
  8
_0-1_
 62
    7
 10
107.95846268937396
 20
87.698166305954402
 40
3
 41
1
 50
0
  1
破風板　
  0
TEXT
  8
_0-1_
 62
    7
 10
118.20619943979625
 20
87.698166305954402
 40
3
 41
1
 50
0
  1
40ｘ200
  0
TEXT
  8
_0-1_
 62
    7
 10
247.63851268871412
 20
123.33247004328548
 40
3
 41
1
 50
0
  1
桟瓦
  0
TEXT
  8
_0-1_
 62
    7
 10
247.63851681271117
 20
108.89752362225508
 40
3
 41
1
 50
0
  1
流し桟
  0
TEXT
  8
_0-1_
 62
    7
 10
247.63851268871412
 20
95.126266479492187
 40
3
 41
1
 50
0
  1
野地板　　ｔ＝12
  0
TEXT
  8
_0-1_
 62
    7
 10
247.63851268871412
 20
88.323595201646967
 40
3
 41
1
 50
0
  1
垂木　　　60ｘ60
  0
TEXT
  8
_1-2_
 62
    7
 10
258.11756855732688
 20
116.18252316036741
 40
3
 41
1
 50
0
  1
18ｘ24
  0
TEXT
  8
_1-2_
 62
    7
 10
259.71387296109589
 20
102.12098817567568
 40
3
 41
1
 50
0
  1
ゴムアス系ルーフィング
  0
TEXT
  8
_1-2_
 62
    7
 10
247.63852093670823
 20
101.92893775733742
 40
3
 41
1
 50
0
  1
下葺き材
  0
TEXT
  8
_1-2_
 62
    7
 10
247.63851268871412
 20
116.03203026024072
 40
3
 41
1
 50
0
  1
瓦桟
  0
LINE
  8
_0-1_
  6
CONTINUOUS
 62
    7
 10
213.43723875492589
 20
25.680406435124397
 11
213.43723875492589
 21
11.080383165471062
  0
LINE
  8
ADD_LINE
  6
DOT
 62
    7
 10
125.83724028080478
 20
22.837598665349006
 11
205.20020872562901
 21
22.837598665349006
  0
LINE
  8
_0-1_
  6
CONTINUOUS
 62
    7
 10
7.5772534033633576
 20
25.680406435124397
 11
412.72727781742583
 21
25.680406435124397
  0
LINE
  8
_0-1_
  6
CONTINUOUS
 62
    5
 10
7.5772534033633576
 20
293.59038720905016
 11
412.72727781742583
 21
293.59038720905016
  0
LINE
  8
_0-1_
  6
CONTINUOUS
 62
    5
 10
7.5772534033633576
 20
8.8904055195970386
 11
412.72727781742583
 21
8.8904055195970386
  0
LINE
  8
_0-1_
  6
CONTINUOUS
 62
    7
 10
412.72727781742583
 20
25.680406435124397
 11
412.72727781742583
 21
11.080383165471062
  0
LINE
  8
_0-1_
  6
CONTINUOUS
 62
    7
 10
7.5772534033633576
 20
14.834709509007439
 11
7.5772534033633576
 21
11.080383165471062
  0
LINE
  8
_0-1_
  6
CONTINUOUS
 62
    7
 10
7.5772534033633576
 20
25.680406435124397
 11
7.5772534033633576
 21
19.857313974492058
  0
LINE
  8
_0-1_
  6
CONTINUOUS
 62
    7
 10
7.5772534033633576
 20
19.857313974492058
 11
7.5772534033633576
 21
19.500179155461296
  0
LINE
  8
_0-1_
  6
CONTINUOUS
 62
    7
 10
7.5772534033633576
 20
19.857313974492058
 11
7.5772534033633576
 21
14.834709509007439
  0
LINE
  8
_0-1_
  6
CONTINUOUS
 62
    7
 10
7.5772534033633576
 20
11.080383165471062
 11
412.72727781742583
 21
11.080383165471062
  0
LINE
  8
_0-1_
  6
CONTINUOUS
 62
    7
 10
407.77128416508208
 20
21.534768922917365
 11
399.9884777685977
 21
13.751917703740105
  0
LINE
  8
_0-1_
  6
CONTINUOUS
 62
    7
 10
412.72727781742583
 20
11.080383165471062
 11
412.72727781742583
 21
25.680406435124397
  0
LINE
  8
_0-1_
  6
CONTINUOUS
 62
    7
 10
290.08723265141026
 20
25.680406435124397
 11
290.08723265141026
 21
19.020202501408562
  0
LINE
  8
_0-1_
  6
CONTINUOUS
 62
    7
 10
290.08723265141026
 20
19.020202501408562
 11
290.08723265141026
 21
11.080383165471062
  0
LINE
  8
_0-1_
  6
CONTINUOUS
 62
    7
 10
213.43723875492589
 20
18.380405290715203
 11
288.84425169437901
 21
18.380405290715203
  0
LINE
  8
_0-1_
  6
CONTINUOUS
 62
    7
 10
306.87721067875401
 20
25.680406435124397
 11
306.87721067875401
 21
19.857313974492058
  0
LINE
  8
_0-1_
  6
CONTINUOUS
 62
    7
 10
306.87721067875401
 20
19.857313974492058
 11
306.87721067875401
 21
11.080383165471062
  0
LINE
  8
_0-1_
  6
CONTINUOUS
 62
    7
 10
213.43723875492589
 20
18.380405290715203
 11
290.08723265141026
 21
18.380405290715203
  0
LINE
  8
_0-1_
  6
CONTINUOUS
 62
    7
 10
394.4772472998477
 20
25.680406435124397
 11
394.4772472998477
 21
11.080383165471062
  0
LINE
  8
ADD_LINE
  6
DOT
 62
    7
 10
18.655595841107498
 20
22.837598665349006
 11
48.897417130169998
 21
22.837598665349006
  0
LINE
  8
ADD_LINE
  6
DOT
 62
    7
 10
48.897417130169998
 20
22.837598665349006
 11
127.16582304447665
 21
22.837598665349006
  0
LINE
  8
ADD_LINE
  6
DOT
 62
    7
 10
205.20020872562901
 20
22.837598665349006
 11
328.84751707523839
 21
22.837598665349006
  0
LINE
  8
_0-1_
  6
CONTINUOUS
 62
    7
 10
263.07722288578526
 20
18.380405290715203
 11
263.07722288578526
 21
11.080383165471062
  0
LINE
  8
ADD_LINE
  6
DOT
 62
    7
 10
214.60806089848057
 20
15.584670408360466
 11
273.05274778812901
 21
15.584670408360466
  0
LINE
  8
ADD_LINE
  6
DOT
 62
    7
 10
328.84751707523839
 20
22.837598665349006
 11
403.85075193851958
 21
22.837598665349006
  0
TEXT
  8
_0-1_
 62
    7
 10
9.3539288660861359
 20
22.597051485173225
 40
2
 41
1
 50
0
  1
特記
  0
TEXT
  8
_0-1_
 62
    7
 10
213.43606382816807
 20
22.583328111760139
 40
2
 41
1
 50
0
  1
図面名
  0
TEXT
  8
_0-1_
 62
    7
 10
213.76429563969151
 20
15.247170789830193
 40
2
 41
1
 50
0
  1
SCALE
  0
TEXT
  8
_0-1_
 62
    7
 10
263.93104368656651
 20
15.16264854251574
 40
2
 41
1
 50
0
  1
DATE
  0
TEXT
  8
_0-1_
 62
    7
 10
291.17832762211339
 20
22.653281076542854
 40
2
 41
1
 50
0
  1
担当
  0
TEXT
  8
_0-1_
 62
    7
 10
395.47913938969145
 20
22.372781618229865
 40
2.5
 41
1
 50
0
  1
NO
  0
LINE
  8
_0-1_
  6
CONTINUOUS
 62
    4
 10
18.11883360355867
 20
22.111630304448127
 11
213.43723875492589
 21
22.111630304448127
  0
LINE
  8
_0-1_
  6
CONTINUOUS
 62
    4
 10
18.11883360355867
 20
18.461629732243523
 11
213.43723875492589
 21
18.461629732243523
  0
LINE
  8
_0-1_
  6
CONTINUOUS
 62
    4
 10
18.11883360355867
 20
14.811652048222527
 11
213.43723875492589
 21
14.811652048222527
  0
LINE
  8
ADD_LINE
  6
DOT
 62
    4
 10
311.249670296575
 20
19.812035451072745
 11
345.00828120240271
 21
19.812035451072745
  0
TEXT
  8
_0-1_
 62
    7
 10
310.64143599415735
 20
19.578707430822249
 40
3
 41
1
 50
0
  1
株式会社
  0
TEXT
  8
_0-1_
 62
    3
 10
328.38745303781229
 20
19.490272438212457
 40
5
 41
1
 50
0
  1
神　清
  0
TEXT
  8
_1-1_
 62
    7
 10
397.98668885191353
 20
16.769550748752067
 40
3
 41
1
 50
0
  1
10
  0
ARC
  8
_1-1_
  6
CONTINUOUS
 62
    7
 10
119.54014166729647
 20
223.3675014487296
 40
48.372339413148097
 50
268.90372940627856
 51
288.15780181361771
  0
LINE
  8
_1-1_
  6
CONTINUOUS
 62
    7
 10
103.61466446522107
 20
184.00401612923224
 11
110.61466446522107
 21
178.40401612923222
  0
LINE
  8
_1-1_
  6
CONTINUOUS
 62
    7
 10
118.61466446522107
 20
175.00401612923221
 11
110.61466446522107
 21
175.00401612923224
  0
LINE
  8
_1-1_
  6
CONTINUOUS
 62
    7
 10
110.61466446522107
 20
178.40401612923222
 11
118.61466446522107
 21
178.40401612923222
  0
ARC
  8
_1-1_
  6
CONTINUOUS
 62
    7
 10
120.81459544665945
 20
231.83481100868411
 40
53.476065092461276
 50
267.64226592548619
 51
294.05794333410859
  0
ARC
  8
_1-1_
  6
CONTINUOUS
 62
    7
 10
126.59048536170256
 20
200.16833201640628
 40
24.13714001484826
 50
289.41701181354421
 51
297.09067179872312
  0
ARC
  8
_1-1_
  6
CONTINUOUS
 62
    7
 10
80.515719926528561
 20
331.24703093928406
 40
162.07522092457111
 50
289.49892146442789
 51
290.6158646114751
  0
ARC
  8
_1-1_
  6
CONTINUOUS
 62
    7
 10
139.49012425563018
 20
187.71761279311337
 40
6.8071264751187801
 50
279.50887795358125
 51
297.68337382442581
  0
ARC
  8
_1-1_
  6
CONTINUOUS
 62
    7
 10
135.44564876580944
 20
188.70135537688304
 40
9.7883251327472198
 50
282.80256297725663
 51
301.8757987899786
  0
LINE
  8
_1-1_
  6
CONTINUOUS
 62
    7
 10
137.61466446522107
 20
179.55077028496825
 11
137.61466446522107
 21
178.67935103149534
  0
LINE
  8
_1-1_
  6
CONTINUOUS
 62
    7
 10
140.6146644652211
 20
181.00401612923224
 11
140.6146644652211
 21
180.38916038376559
  0
LINE
  8
_1-1_
  6
CONTINUOUS
 62
    7
 10
142.6146644652211
 20
183.00401612923224
 11
142.6146644652211
 21
181.66995049046182
  0
LINE
  8
_1-1_
  6
CONTINUOUS
 62
    7
 10
134.61466446522107
 20
180.17004900539902
 11
134.61466446522107
 21
177.40401612923222
  0
LINE
  8
_1-1_
  6
CONTINUOUS
 62
    7
 10
137.61466446522107
 20
181.06624574685384
 11
137.61466446522107
 21
181.6986370358552
  0
ARC
  8
_1-1_
  6
CONTINUOUS
 62
    7
 10
120.81459544665945
 20
231.83481100868411
 40
52.876065092461275
 50
288.52542245613142
 51
290.13311549840847
  0
LINE
  8
_1-1_
  6
CONTINUOUS
 62
    7
 10
141.01466446522107
 20
182.32070443875293
 11
141.01466446522107
 21
182.96932757397789
  0
LINE
  8
_1-1_
  6
CONTINUOUS
 62
    7
 10
139.01466446522107
 20
181.55114541544452
 11
139.01466446522107
 21
182.18971308973752
  0
LINE
  8
ADD_LINE
  6
DOT
 62
    4
 10
81.614664465221097
 20
183.40401612923222
 11
81.614664465221097
 21
196.47893693539055
  0
LINE
  8
ADD_LINE
  6
DOT
 62
    4
 10
134.6146644652211
 20
199.26265015877587
 11
134.6146644652211
 21
172.45109648090676
  0
LINE
  8
ADD_LINE
  6
DOT
 62
    4
 10
187.6146644652211
 20
199.26265015877587
 11
187.6146644652211
 21
172.45109648090676
  0
LINE
  8
ADD_LINE
  6
DOT
 62
    4
 10
240.6146644652211
 20
199.26265015877587
 11
240.6146644652211
 21
172.45109648090676
  0
LINE
  8
ADD_LINE
  6
DOT
 62
    4
 10
293.6146644652211
 20
199.26265015877587
 11
293.6146644652211
 21
172.45109648090676
  0
LINE
  8
ADD_LINE
  6
DOT
 62
    4
 10
346.6146644652211
 20
199.26265015877587
 11
346.6146644652211
 21
172.45109648090676
  0
LINE
  8
ADD_LINE
  6
DOT
 62
    4
 10
399.6146644652211
 20
199.26265015877587
 11
399.6146644652211
 21
172.45109648090676
  0
ARC
  8
_1-1_
  6
CONTINUOUS
 62
    7
 10
172.54014166729644
 20
223.3675014487296
 40
48.372339413148097
 50
268.90372940627856
 51
288.15780181361771
  0
LINE
  8
_1-1_
  6
CONTINUOUS
 62
    7
 10
156.61466446522104
 20
184.00401612923224
 11
163.61466446522104
 21
178.40401612923222
  0
LINE
  8
_1-1_
  6
CONTINUOUS
 62
    7
 10
171.61466446522104
 20
175.00401612923221
 11
163.61466446522104
 21
175.00401612923224
  0
LINE
  8
_1-1_
  6
CONTINUOUS
 62
    7
 10
163.61466446522104
 20
178.40401612923222
 11
171.61466446522104
 21
178.40401612923222
  0
ARC
  8
_1-1_
  6
CONTINUOUS
 62
    7
 10
145.29317043829792
 20
159.5334616657704
 40
23.979474531055075
 50
40.177537291073364
 51
116.44372435804827
  0
LINE
  8
_1-1_
  6
CONTINUOUS
 62
    7
 10
134.61466446522104
 20
183.40401612923222
 11
134.61466446522104
 21
181.00401612923224
  0
ARC
  8
_1-1_
  6
CONTINUOUS
 62
    7
 10
146.06966446522105
 20
167.02068279589889
 40
19.990763770079191
 50
58.16373644885514
 51
124.96071338482965
  0
ARC
  8
_1-1_
  6
CONTINUOUS
 62
    7
 10
173.81459544665944
 20
231.83481100868411
 40
53.476065092461276
 50
267.64226592548619
 51
294.05794333410859
  0
ARC
  8
_1-1_
  6
CONTINUOUS
 62
    7
 10
179.59048536170252
 20
200.16833201640628
 40
24.13714001484826
 50
289.41701181354421
 51
297.09067179872312
  0
ARC
  8
_1-1_
  6
CONTINUOUS
 62
    7
 10
133.51571992652853
 20
331.24703093928406
 40
162.07522092457111
 50
289.49892146442789
 51
290.6158646114751
  0
ARC
  8
_1-1_
  6
CONTINUOUS
 62
    7
 10
192.49012425563015
 20
187.71761279311337
 40
6.8071264751187801
 50
279.50887795358125
 51
297.68337382442581
  0
ARC
  8
_1-1_
  6
CONTINUOUS
 62
    7
 10
188.44564876580941
 20
188.70135537688304
 40
9.7883251327472198
 50
282.80256297725663
 51
301.8757987899786
  0
LINE
  8
_1-1_
  6
CONTINUOUS
 62
    7
 10
190.61466446522104
 20
179.55077028496825
 11
190.61466446522104
 21
178.67935103149534
  0
LINE
  8
_1-1_
  6
CONTINUOUS
 62
    7
 10
193.61466446522104
 20
181.00401612923224
 11
193.61466446522104
 21
180.38916038376559
  0
LINE
  8
_1-1_
  6
CONTINUOUS
 62
    7
 10
195.61466446522104
 20
183.00401612923224
 11
195.61466446522104
 21
181.66995049046182
  0
LINE
  8
_1-1_
  6
CONTINUOUS
 62
    7
 10
187.61466446522104
 20
180.17004900539902
 11
187.61466446522104
 21
177.40401612923222
  0
LINE
  8
_1-1_
  6
CONTINUOUS
 62
    7
 10
190.61466446522104
 20
181.06624574685384
 11
190.61466446522104
 21
181.6986370358552
  0
ARC
  8
_1-1_
  6
CONTINUOUS
 62
    7
 10
173.81459544665944
 20
231.83481100868411
 40
52.876065092461275
 50
288.52542245613142
 51
290.13311549840847
  0
LINE
  8
_1-1_
  6
CONTINUOUS
 62
    7
 10
194.01466446522105
 20
182.32070443875293
 11
194.01466446522105
 21
182.96932757397789
  0
LINE
  8
_1-1_
  6
CONTINUOUS
 62
    7
 10
192.01466446522105
 20
181.55114541544452
 11
192.01466446522105
 21
182.18971308973752
  0
ARC
  8
_1-1_
  6
CONTINUOUS
 62
    7
 10
225.54014166729647
 20
223.3675014487296
 40
48.372339413148097
 50
268.90372940627856
 51
288.15780181361771
  0
LINE
  8
_1-1_
  6
CONTINUOUS
 62
    7
 10
209.61466446522107
 20
184.00401612923224
 11
216.61466446522107
 21
178.40401612923222
  0
LINE
  8
_1-1_
  6
CONTINUOUS
 62
    7
 10
224.61466446522107
 20
175.00401612923221
 11
216.61466446522107
 21
175.00401612923224
  0
LINE
  8
_1-1_
  6
CONTINUOUS
 62
    7
 10
216.61466446522107
 20
178.40401612923222
 11
224.61466446522107
 21
178.40401612923222
  0
ARC
  8
_1-1_
  6
CONTINUOUS
 62
    7
 10
198.29317043829795
 20
159.5334616657704
 40
23.979474531055075
 50
40.177537291073364
 51
116.44372435804827
  0
LINE
  8
_1-1_
  6
CONTINUOUS
 62
    7
 10
187.61466446522107
 20
183.40401612923222
 11
187.61466446522107
 21
181.00401612923224
  0
ARC
  8
_1-1_
  6
CONTINUOUS
 62
    7
 10
199.06966446522108
 20
167.02068279589889
 40
19.990763770079191
 50
58.16373644885514
 51
124.96071338482965
  0
ARC
  8
_1-1_
  6
CONTINUOUS
 62
    7
 10
226.81459544665944
 20
231.83481100868411
 40
53.476065092461276
 50
267.64226592548619
 51
294.05794333410859
  0
ARC
  8
_1-1_
  6
CONTINUOUS
 62
    7
 10
232.59048536170258
 20
200.16833201640628
 40
24.13714001484826
 50
289.41701181354421
 51
297.09067179872312
  0
ARC
  8
_1-1_
  6
CONTINUOUS
 62
    7
 10
186.51571992652856
 20
331.24703093928406
 40
162.07522092457111
 50
289.49892146442789
 51
290.6158646114751
  0
ARC
  8
_1-1_
  6
CONTINUOUS
 62
    7
 10
245.49012425563018
 20
187.71761279311337
 40
6.8071264751187801
 50
279.50887795358125
 51
297.68337382442581
  0
ARC
  8
_1-1_
  6
CONTINUOUS
 62
    7
 10
241.44564876580944
 20
188.70135537688304
 40
9.7883251327472198
 50
282.80256297725663
 51
301.8757987899786
  0
LINE
  8
_1-1_
  6
CONTINUOUS
 62
    7
 10
243.61466446522107
 20
179.55077028496825
 11
243.61466446522107
 21
178.67935103149534
  0
LINE
  8
_1-1_
  6
CONTINUOUS
 62
    7
 10
246.6146644652211
 20
181.00401612923224
 11
246.6146644652211
 21
180.38916038376559
  0
LINE
  8
_1-1_
  6
CONTINUOUS
 62
    7
 10
248.6146644652211
 20
183.00401612923224
 11
248.6146644652211
 21
181.66995049046182
  0
LINE
  8
_1-1_
  6
CONTINUOUS
 62
    7
 10
240.61466446522107
 20
180.17004900539902
 11
240.61466446522107
 21
177.40401612923222
  0
LINE
  8
_1-1_
  6
CONTINUOUS
 62
    7
 10
243.61466446522107
 20
181.06624574685384
 11
243.61466446522107
 21
181.6986370358552
  0
ARC
  8
_1-1_
  6
CONTINUOUS
 62
    7
 10
226.81459544665944
 20
231.83481100868411
 40
52.876065092461275
 50
288.52542245613142
 51
290.13311549840847
  0
LINE
  8
_1-1_
  6
CONTINUOUS
 62
    7
 10
247.01466446522107
 20
182.32070443875293
 11
247.01466446522107
 21
182.96932757397789
  0
LINE
  8
_1-1_
  6
CONTINUOUS
 62
    7
 10
245.01466446522107
 20
181.55114541544452
 11
245.01466446522107
 21
182.18971308973752
  0
ARC
  8
_1-1_
  6
CONTINUOUS
 62
    7
 10
278.54014166729644
 20
223.3675014487296
 40
48.372339413148097
 50
268.90372940627856
 51
288.15780181361771
  0
LINE
  8
_1-1_
  6
CONTINUOUS
 62
    7
 10
262.61466446522104
 20
184.00401612923224
 11
269.61466446522104
 21
178.40401612923222
  0
LINE
  8
_1-1_
  6
CONTINUOUS
 62
    7
 10
277.61466446522104
 20
175.00401612923221
 11
269.61466446522104
 21
175.00401612923224
  0
LINE
  8
_1-1_
  6
CONTINUOUS
 62
    7
 10
269.61466446522104
 20
178.40401612923222
 11
277.61466446522104
 21
178.40401612923222
  0
ARC
  8
_1-1_
  6
CONTINUOUS
 62
    7
 10
251.29317043829795
 20
159.5334616657704
 40
23.979474531055075
 50
40.177537291073364
 51
116.44372435804827
  0
LINE
  8
_1-1_
  6
CONTINUOUS
 62
    7
 10
240.61466446522107
 20
183.40401612923222
 11
240.61466446522107
 21
181.00401612923224
  0
ARC
  8
_1-1_
  6
CONTINUOUS
 62
    7
 10
252.06966446522108
 20
167.02068279589889
 40
19.990763770079191
 50
58.16373644885514
 51
124.96071338482965
  0
ARC
  8
_1-1_
  6
CONTINUOUS
 62
    7
 10
279.81459544665944
 20
231.83481100868411
 40
53.476065092461276
 50
267.64226592548619
 51
294.05794333410859
  0
ARC
  8
_1-1_
  6
CONTINUOUS
 62
    7
 10
285.59048536170258
 20
200.16833201640628
 40
24.13714001484826
 50
289.41701181354421
 51
297.09067179872312
  0
ARC
  8
_1-1_
  6
CONTINUOUS
 62
    7
 10
239.51571992652856
 20
331.24703093928406
 40
162.07522092457111
 50
289.49892146442789
 51
290.6158646114751
  0
ARC
  8
_1-1_
  6
CONTINUOUS
 62
    7
 10
298.49012425563018
 20
187.71761279311337
 40
6.8071264751187801
 50
279.50887795358125
 51
297.68337382442581
  0
ARC
  8
_1-1_
  6
CONTINUOUS
 62
    7
 10
294.44564876580944
 20
188.70135537688304
 40
9.7883251327472198
 50
282.80256297725663
 51
301.8757987899786
  0
LINE
  8
_1-1_
  6
CONTINUOUS
 62
    7
 10
296.61466446522104
 20
179.55077028496825
 11
296.61466446522104
 21
178.67935103149534
  0
LINE
  8
_1-1_
  6
CONTINUOUS
 62
    7
 10
299.6146644652211
 20
181.00401612923224
 11
299.6146644652211
 21
180.38916038376559
  0
LINE
  8
_1-1_
  6
CONTINUOUS
 62
    7
 10
301.6146644652211
 20
183.00401612923224
 11
301.6146644652211
 21
181.66995049046182
  0
LINE
  8
_1-1_
  6
CONTINUOUS
 62
    7
 10
293.61466446522104
 20
180.17004900539902
 11
293.61466446522104
 21
177.40401612923222
  0
LINE
  8
_1-1_
  6
CONTINUOUS
 62
    7
 10
296.61466446522104
 20
181.06624574685384
 11
296.61466446522104
 21
181.6986370358552
  0
ARC
  8
_1-1_
  6
CONTINUOUS
 62
    7
 10
279.81459544665944
 20
231.83481100868411
 40
52.876065092461275
 50
288.52542245613142
 51
290.13311549840847
  0
LINE
  8
_1-1_
  6
CONTINUOUS
 62
    7
 10
300.01466446522107
 20
182.32070443875293
 11
300.01466446522107
 21
182.96932757397789
  0
LINE
  8
_1-1_
  6
CONTINUOUS
 62
    7
 10
298.01466446522107
 20
181.55114541544452
 11
298.01466446522107
 21
182.18971308973752
  0
ARC
  8
_1-1_
  6
CONTINUOUS
 62
    7
 10
331.54014166729644
 20
223.3675014487296
 40
48.372339413148097
 50
268.90372940627856
 51
288.15780181361771
  0
LINE
  8
_1-1_
  6
CONTINUOUS
 62
    7
 10
315.61466446522104
 20
184.00401612923224
 11
322.61466446522104
 21
178.40401612923222
  0
LINE
  8
_1-1_
  6
CONTINUOUS
 62
    7
 10
330.61466446522104
 20
175.00401612923221
 11
322.61466446522104
 21
175.00401612923224
  0
LINE
  8
_1-1_
  6
CONTINUOUS
 62
    7
 10
322.61466446522104
 20
178.40401612923222
 11
330.61466446522104
 21
178.40401612923222
  0
ARC
  8
_1-1_
  6
CONTINUOUS
 62
    7
 10
304.29317043829792
 20
159.5334616657704
 40
23.979474531055075
 50
40.177537291073364
 51
116.44372435804827
  0
LINE
  8
_1-1_
  6
CONTINUOUS
 62
    7
 10
293.61466446522104
 20
183.40401612923222
 11
293.61466446522104
 21
181.00401612923224
  0
ARC
  8
_1-1_
  6
CONTINUOUS
 62
    7
 10
305.06966446522108
 20
167.02068279589889
 40
19.990763770079191
 50
58.16373644885514
 51
124.96071338482965
  0
ARC
  8
_1-1_
  6
CONTINUOUS
 62
    7
 10
332.81459544665944
 20
231.83481100868411
 40
53.476065092461276
 50
267.64226592548619
 51
294.05794333410859
  0
ARC
  8
_1-1_
  6
CONTINUOUS
 62
    7
 10
338.59048536170258
 20
200.16833201640628
 40
24.13714001484826
 50
289.41701181354421
 51
297.09067179872312
  0
ARC
  8
_1-1_
  6
CONTINUOUS
 62
    7
 10
292.51571992652856
 20
331.24703093928406
 40
162.07522092457111
 50
289.49892146442789
 51
290.6158646114751
  0
ARC
  8
_1-1_
  6
CONTINUOUS
 62
    7
 10
351.49012425563018
 20
187.71761279311337
 40
6.8071264751187801
 50
279.50887795358125
 51
297.68337382442581
  0
ARC
  8
_1-1_
  6
CONTINUOUS
 62
    7
 10
347.44564876580944
 20
188.70135537688304
 40
9.7883251327472198
 50
282.80256297725663
 51
301.8757987899786
  0
LINE
  8
_1-1_
  6
CONTINUOUS
 62
    7
 10
349.61466446522104
 20
179.55077028496825
 11
349.61466446522104
 21
178.67935103149534
  0
LINE
  8
_1-1_
  6
CONTINUOUS
 62
    7
 10
352.6146644652211
 20
181.00401612923224
 11
352.6146644652211
 21
180.38916038376559
  0
LINE
  8
_1-1_
  6
CONTINUOUS
 62
    7
 10
354.6146644652211
 20
183.00401612923224
 11
354.6146644652211
 21
181.66995049046182
  0
LINE
  8
_1-1_
  6
CONTINUOUS
 62
    7
 10
346.61466446522104
 20
180.17004900539902
 11
346.61466446522104
 21
177.40401612923222
  0
LINE
  8
_1-1_
  6
CONTINUOUS
 62
    7
 10
349.61466446522104
 20
181.06624574685384
 11
349.61466446522104
 21
181.6986370358552
  0
ARC
  8
_1-1_
  6
CONTINUOUS
 62
    7
 10
332.81459544665944
 20
231.83481100868411
 40
52.876065092461275
 50
288.52542245613142
 51
290.13311549840847
  0
LINE
  8
_1-1_
  6
CONTINUOUS
 62
    7
 10
353.01466446522107
 20
182.32070443875293
 11
353.01466446522107
 21
182.96932757397789
  0
LINE
  8
_1-1_
  6
CONTINUOUS
 62
    7
 10
351.01466446522107
 20
181.55114541544452
 11
351.01466446522107
 21
182.18971308973752
  0
LINE
  8
_1-1_
  6
CONTINUOUS
 62
    7
 10
368.61466446522104
 20
184.00401612923224
 11
375.61466446522104
 21
178.40401612923222
  0
LINE
  8
_1-1_
  6
CONTINUOUS
 62
    7
 10
383.61466446522104
 20
175.00401612923221
 11
375.61466446522104
 21
175.00401612923224
  0
LINE
  8
_1-1_
  6
CONTINUOUS
 62
    7
 10
375.61466446522104
 20
178.40401612923222
 11
383.61466446522104
 21
178.40401612923222
  0
ARC
  8
_1-1_
  6
CONTINUOUS
 62
    7
 10
357.29317043829792
 20
159.5334616657704
 40
23.979474531055075
 50
40.177537291073364
 51
116.44372435804827
  0
LINE
  8
_1-1_
  6
CONTINUOUS
 62
    7
 10
346.61466446522104
 20
183.40401612923222
 11
346.61466446522104
 21
181.00401612923224
  0
ARC
  8
_1-1_
  6
CONTINUOUS
 62
    7
 10
358.06966446522108
 20
167.02068279589889
 40
19.990763770079191
 50
58.16373644885514
 51
124.96071338482965
  0
ARC
  8
_1-1_
  6
CONTINUOUS
 62
    7
 10
385.81459544665944
 20
231.83481100868411
 40
53.476065092461276
 50
267.64226592548619
 51
275.66419445357008
  0
ARC
  8
_1-1_
  6
CONTINUOUS
 62
    7
 10
384.54014166729644
 20
223.3675014487296
 40
48.372339413148097
 50
268.90372940627856
 51
277.78511481730527
  0
ARC
  8
_1-1_
  6
CONTINUOUS
 62
    7
 10
120.81459544665945
 20
231.83481100868411
 40
52.876065092461275
 50
292.45927816972824
 51
293.19657413126652
  0
LINE
  8
_1-1_
  6
CONTINUOUS
 62
    7
 10
142.6146644652211
 20
183.00401612923221
 11
142.6146644652211
 21
183.36287216073882
  0
ARC
  8
_1-1_
  6
CONTINUOUS
 62
    7
 10
173.81459544665944
 20
231.83481100868411
 40
52.876065092461275
 50
292.45927816972824
 51
293.19657413126646
  0
LINE
  8
_1-1_
  6
CONTINUOUS
 62
    7
 10
195.61466446522104
 20
183.00401612923221
 11
195.61466446522104
 21
183.36287216073882
  0
ARC
  8
_1-1_
  6
CONTINUOUS
 62
    7
 10
226.81459544665944
 20
231.83481100868411
 40
52.876065092461275
 50
292.45927816972824
 51
293.19657413126657
  0
LINE
  8
_1-1_
  6
CONTINUOUS
 62
    7
 10
248.6146644652211
 20
183.00401612923221
 11
248.6146644652211
 21
183.36287216073882
  0
ARC
  8
_1-1_
  6
CONTINUOUS
 62
    7
 10
279.81459544665944
 20
231.83481100868411
 40
52.876065092461275
 50
292.45927816972824
 51
293.19657413126652
  0
LINE
  8
_1-1_
  6
CONTINUOUS
 62
    7
 10
301.6146644652211
 20
183.00401612923221
 11
301.6146644652211
 21
183.36287216073882
  0
ARC
  8
_1-1_
  6
CONTINUOUS
 62
    7
 10
332.81459544665944
 20
231.83481100868411
 40
52.876065092461275
 50
292.45927816972824
 51
293.19657413126657
  0
LINE
  8
_1-1_
  6
CONTINUOUS
 62
    7
 10
354.6146644652211
 20
183.00401612923221
 11
354.6146644652211
 21
183.36287216073882
  0
TEXT
  8
_0-1_
 62
    7
 10
223.13368456897959
 20
20.065471856390218
 40
3
 41
1
 50
0
  1
Ｎｏｖｕｍ　袖　1
  0
TEXT
  8
_0-1_
 62
    7
 10
223.82205475621606
 20
12.751538617002723
 40
3
 41
1
 50
0
  1
1/5
  0
POINT
  8
_1-1_
 62
    7
 10
134.6146644652211
 20
225.37188019966723
  0
LINE
  8
_1-1_
  6
CONTINUOUS
 62
    7
 10
134.6146644652211
 20
225.37188019966723
 11
134.6146644652211
 21
197.41846921797006
  0
LINE
  8
_1-1_
  6
CONTINUOUS
 62
    7
 10
134.6146644652211
 20
225.37188019966723
 11
187.6146644652211
 21
225.37188019966723
  0
POINT
  8
_1-1_
 62
    7
 10
187.6146644652211
 20
225.37188019966723
  0
LINE
  8
_1-1_
  6
CONTINUOUS
 62
    7
 10
187.6146644652211
 20
225.37188019966723
 11
187.6146644652211
 21
197.41846921797006
  0
TEXT
  8
_1-1_
 62
    7
 10
158.6146644652211
 20
225.87188019966723
 40
3
 41
1
 50
0
  1
265
  0
LINE
  8
_1-1_
  6
CONTINUOUS
 62
    7
 10
187.6146644652211
 20
225.37188019966723
 11
240.6146644652211
 21
225.37188019966723
  0
POINT
  8
_1-1_
 62
    7
 10
240.6146644652211
 20
225.37188019966723
  0
LINE
  8
_1-1_
  6
CONTINUOUS
 62
    7
 10
240.6146644652211
 20
225.37188019966723
 11
240.6146644652211
 21
197.41846921797006
  0
TEXT
  8
_1-1_
 62
    7
 10
211.6146644652211
 20
225.87188019966723
 40
3
 41
1
 50
0
  1
265
  0
LINE
  8
_1-1_
  6
CONTINUOUS
 62
    7
 10
240.6146644652211
 20
225.37188019966723
 11
293.6146644652211
 21
225.37188019966723
  0
POINT
  8
_1-1_
 62
    7
 10
293.6146644652211
 20
225.37188019966723
  0
LINE
  8
_1-1_
  6
CONTINUOUS
 62
    7
 10
293.6146644652211
 20
225.37188019966723
 11
293.6146644652211
 21
197.41846921797006
  0
TEXT
  8
_1-1_
 62
    7
 10
264.6146644652211
 20
225.87188019966723
 40
3
 41
1
 50
0
  1
265
  0
LINE
  8
_1-1_
  6
CONTINUOUS
 62
    7
 10
293.6146644652211
 20
225.37188019966723
 11
346.61466446522115
 21
225.37188019966723
  0
POINT
  8
_1-1_
 62
    7
 10
346.61466446522115
 20
225.37188019966723
  0
LINE
  8
_1-1_
  6
CONTINUOUS
 62
    7
 10
346.61466446522115
 20
225.37188019966723
 11
346.61466446522115
 21
197.41846921797006
  0
TEXT
  8
_1-1_
 62
    7
 10
317.6146644652211
 20
225.87188019966723
 40
3
 41
1
 50
0
  1
265
  0
TEXT
  8
_0-a_
 62
    7
 10
310.75285402229287
 20
13.379928041157285
 40
3
 41
1
 50
0
  1
〒475－0807　半田市八軒町２８番地
  0
LINE
  8
_1-0_
  6
CONTINUOUS
 62
    7
 10
-74.569697935622457
 20
171.2594728212099
 11
-74.569697935622457
 21
170.65946836729307
  0
LINE
  8
_1-0_
  6
CONTINUOUS
 62
    7
 10
78.527876465609239
 20
178.45946440825591
 11
86.52787811520804
 21
178.45946440825591
  0
LINE
  8
_1-0_
  6
CONTINUOUS
 62
    7
 10
78.527876465609239
 20
138.45946853225297
 11
86.52787811520804
 21
138.45946853225297
  0
LINE
  8
_1-0_
  6
CONTINUOUS
 62
    7
 10
78.527876465609239
 20
178.45946440825591
 11
78.527876465609239
 21
138.45946853225297
  0
LINE
  8
_1-0_
  6
CONTINUOUS
 62
    7
 10
84.831882268897886
 20
155.05945154138513
 11
84.831882268897886
 21
153.85945500554266
  0
LINE
  8
_1-0_
  6
CONTINUOUS
 62
    7
 10
86.52787811520804
 20
178.45946440825591
 11
86.52787811520804
 21
155.05945154138513
  0
LINE
  8
_1-0_
  6
CONTINUOUS
 62
    7
 10
86.52787811520804
 20
153.85945500554266
 11
86.52787811520804
 21
138.45946853225297
  0
LINE
  8
_1-0_
  6
CONTINUOUS
 62
    7
 10
86.52787811520804
 20
155.05945154138513
 11
86.52787811520804
 21
167.05945401578336
  0
LINE
  8
_1-0_
  6
CONTINUOUS
 62
    7
 10
86.52787811520804
 20
167.05945401578336
 11
98.527880589606283
 21
167.05945401578336
  0
LINE
  8
_1-0_
  6
CONTINUOUS
 62
    7
 10
98.527880589606283
 20
167.05945401578336
 11
98.527880589606283
 21
155.05945154138513
  0
LINE
  8
_1-0_
  6
CONTINUOUS
 62
    7
 10
98.527880589606283
 20
155.05945154138513
 11
86.52787811520804
 21
155.05945154138513
  0
LINE
  8
_1-0_
  6
CONTINUOUS
 62
    7
 10
98.527880589606283
 20
167.05945401578336
 11
86.52787811520804
 21
155.05945154138513
  0
LINE
  8
_1-0_
  6
CONTINUOUS
 62
    7
 10
84.831882268897886
 20
153.85945500554266
 11
391.09257053684547
 21
153.85945500554266
  0
LINE
  8
_1-0_
  6
CONTINUOUS
 62
    7
 10
84.831882268897886
 20
155.05945154138513
 11
391.09257053684547
 21
155.05945154138513
  0
LINE
  8
_1-0_
  6
CONTINUOUS
 62
    7
 10
86.52787811520804
 20
167.05945401578336
 11
391.09257053684547
 21
167.05945401578336
  0
LINE
  8
_1-0_
  6
CONTINUOUS
 62
    7
 10
86.52787811520804
 20
169.45945945945948
 11
391.09257053684547
 21
169.45945945945948
  0
LINE
  8
_1-0_
  6
CONTINUOUS
 62
    7
 10
93.127877620328405
 20
170.65946836729307
 11
391.09257053684547
 21
170.65946836729307
  0
LINE
  8
_1-0_
  6
CONTINUOUS
 62
    7
 10
93.127877620328405
 20
171.2594728212099
 11
391.09259528082771
 21
171.2594728212099
  0
LINE
  8
_1-0_
  6
CONTINUOUS
 62
    7
 10
93.127877620328405
 20
171.2594728212099
 11
93.127877620328405
 21
170.65946836729307
  0
LINE
  8
_1-0_
  6
CONTINUOUS
 62
    2
 10
87.438864938212703
 20
170.48158387880068
 11
92.698179810335802
 21
170.48158387880068
  0
LINE
  8
_1-0_
  6
CONTINUOUS
 62
    2
 10
92.698179810335802
 20
170.48158387880068
 11
92.698179810335802
 21
172.73556271114865
  0
LINE
  8
_1-0_
  6
CONTINUOUS
 62
    7
 10
85.320105782939265
 20
138.45946853225297
 11
86.52787811520804
 21
139.6672346785262
  0
LINE
  8
_1-0_
  6
CONTINUOUS
 62
    7
 10
82.491689216348249
 20
138.45946853225297
 11
86.52787811520804
 21
142.49565743111276
  0
LINE
  8
_1-0_
  6
CONTINUOUS
 62
    7
 10
79.66325409177054
 20
138.45946853225297
 11
86.52787811520804
 21
145.32409255569047
  0
LINE
  8
_1-0_
  6
CONTINUOUS
 62
    7
 10
78.527876465609239
 20
140.15251365867823
 11
86.52787811520804
 21
148.15251530827703
  0
LINE
  8
_1-0_
  6
CONTINUOUS
 62
    7
 10
78.527876465609239
 20
142.98094878325591
 11
86.52787811520804
 21
150.98095043285474
  0
LINE
  8
_1-0_
  6
CONTINUOUS
 62
    7
 10
78.527876465609239
 20
145.8093715358425
 11
86.52787811520804
 21
153.8093731854413
  0
LINE
  8
_1-0_
  6
CONTINUOUS
 62
    7
 10
78.527876465609239
 20
148.63779428842906
 11
84.831882268897886
 21
154.94180627771325
  0
LINE
  8
_1-0_
  6
CONTINUOUS
 62
    7
 10
84.949527532569761
 20
155.05945154138513
 11
86.52787811520804
 21
156.63779593802789
  0
LINE
  8
_1-0_
  6
CONTINUOUS
 62
    7
 10
78.527876465609239
 20
151.46621704101562
 11
86.52787811520804
 21
159.46623106260557
  0
LINE
  8
_1-0_
  6
CONTINUOUS
 62
    7
 10
78.527876465609239
 20
154.29465216559333
 11
86.52787811520804
 21
162.29465381519216
  0
LINE
  8
_1-0_
  6
CONTINUOUS
 62
    7
 10
78.527876465609239
 20
157.1230749181799
 11
86.52787811520804
 21
165.12307656777872
  0
LINE
  8
_1-0_
  6
CONTINUOUS
 62
    7
 10
78.527876465609239
 20
159.9515100427576
 11
86.52787811520804
 21
167.95151169235643
  0
LINE
  8
_1-0_
  6
CONTINUOUS
 62
    7
 10
78.527876465609239
 20
162.77993279534419
 11
86.52787811520804
 21
170.77994681693414
  0
LINE
  8
_1-0_
  6
CONTINUOUS
 62
    7
 10
78.527876465609239
 20
165.60836791992187
 11
86.52787811520804
 21
173.60835719752956
  0
LINE
  8
_1-0_
  6
CONTINUOUS
 62
    7
 10
78.527876465609239
 20
168.43679067250847
 11
86.52787811520804
 21
176.43679232210727
  0
LINE
  8
_1-0_
  6
CONTINUOUS
 62
    7
 10
78.527876465609239
 20
171.26521342509503
 11
85.72212126277455
 21
178.45946440825591
  0
LINE
  8
_1-0_
  6
CONTINUOUS
 62
    7
 10
78.527876465609239
 20
174.09364854967274
 11
82.893698510187988
 21
178.45946440825591
  0
LINE
  8
_1-0_
  6
CONTINUOUS
 62
    7
 10
78.527876465609239
 20
176.9220713022593
 11
80.065269571605853
 21
178.45946440825591
  0
LINE
  8
_1-0_
  6
CONTINUOUS
 62
    7
 10
93.127877620328405
 20
174.25947034681167
 11
93.127877620328405
 21
171.2594728212099
  0
LINE
  8
_1-0_
  6
CONTINUOUS
 62
    2
 10
92.698179810335802
 20
172.73556271114865
 11
92.698179810335802
 21
174.10540194124789
  0
LINE
  8
_1-0_
  6
CONTINUOUS
 62
    2
 10
92.698179810335802
 20
174.10540194124789
 11
91.64213139131131
 21
174.10540194124789
  0
LINE
  8
_1-0_
  6
CONTINUOUS
 62
    7
 10
93.127877620328405
 20
170.65946836729307
 11
93.127877620328405
 21
171.2594728212099
  0
LINE
  8
_1-0_
  6
CONTINUOUS
 62
    7
 10
93.127877620328405
 20
171.2594728212099
 11
97.927876135689473
 21
171.2594728212099
  0
LINE
  8
_1-0_
  6
CONTINUOUS
 62
    7
 10
97.927876135689473
 20
171.2594728212099
 11
97.927876135689473
 21
170.65946836729307
  0
LINE
  8
_1-0_
  6
CONTINUOUS
 62
    7
 10
97.927876135689473
 20
170.65946836729307
 11
93.127877620328405
 21
170.65946836729307
  0
LINE
  8
_1-0_
  6
CONTINUOUS
 62
    7
 10
93.127877620328405
 20
171.2594728212099
 11
97.927876135689473
 21
170.65946836729307
  0
LINE
  8
_1-0_
  6
DASHED1
 62
    3
 10
86.832414676916244
 20
170.05946391337628
 11
391.09257053684547
 21
170.05946391337628
  0
LINE
  8
_1-0_
  6
CONTINUOUS
 62
    2
 10
87.438864938212703
 20
170.48158387880068
 11
87.079644175702157
 21
170.48158387880068
  0
LINE
  8
_1-0_
  6
CONTINUOUS
 62
    2
 10
87.079644175702157
 20
170.48158387880068
 11
87.079644175702157
 21
179.24172066353464
  0
LINE
  8
_1-0_
  6
CONTINUOUS
 62
    2
 10
87.079644175702157
 20
179.24172066353464
 11
87.891970555426582
 21
177.93494147223396
  0
LINE
  8
_1-0_
  6
DASHED1
 62
    3
 10
78.527876465609239
 20
179.05946886217274
 11
86.832414676916244
 21
179.05946886217274
  0
LINE
  8
_1-0_
  6
DASHED1
 62
    3
 10
86.832414676916244
 20
179.05946886217274
 11
86.832414676916244
 21
170.05946391337628
  0
LINE
  8
_0-1_
  6
CONTINUOUS
 62
    7
 10
86.52787811520804
 20
142.49565743111276
 11
99.538130889067787
 21
89.557651829075169
  0
LINE
  8
_0-1_
  6
CONTINUOUS
 62
    7
 10
90.790115664036179
 20
172.16504071209883
 11
100.99296569824219
 21
126.94030349319047
  0
LINE
  8
_1-0_
  6
CONTINUOUS
 62
    3
 10
93.127877620328405
 20
174.25947034681167
 11
261.67023529877537
 21
174.25947034681167
  0
LINE
  8
ADD_LINE
  6
DOT
 62
    4
 10
84.816757513688202
 20
175.00401612923224
 11
110.65033263714673
 21
175.00401612923224
  0
LINE
  8
_1-1_
  6
CONTINUOUS
 62
    7
 10
87.872051124769001
 20
175.92957113421258
 11
87.872058745637929
 21
175.92958030368911
  0
LINE
  8
_1-2_
  6
CONTINUOUS
 62
    7
 10
52.494285466075809
 20
168.15922579389772
 11
52.494285466075809
 21
177.15923074269415
  0
LINE
  8
_1-2_
  6
CONTINUOUS
 62
    7
 10
71.358945986887164
 20
168.15922579389772
 11
52.494285466075809
 21
168.15922579389772
  0
LINE
  8
_1-2_
  6
CONTINUOUS
 62
    7
 10
71.358945986887164
 20
177.15923074269415
 11
52.494285466075809
 21
177.15923074269415
  0
LINE
  8
_0-1_
  6
CONTINUOUS
 62
    7
 10
68.283986567018076
 20
204.81072989809957
 11
64.767582131576773
 21
204.81072989809957
  0
POINT
  8
_1-2_
 62
    7
 10
52.494285466075809
 20
168.15922579389772
  0
POINT
  8
_1-2_
 62
    7
 10
52.494285466075809
 20
177.15923074269415
  0
TEXT
  8
_1-2_
 62
    7
 10
51.994286909474766
 20
171.40922208230037
 40
3
 41
1
 50
90
  1
45
  0
ARC
  8
_1-1_
  6
CONTINUOUS
 62
    7
 10
84.287256981812362
 20
179.15650563305974
 40
8.600000154649889
 50
90
 51
180.45156169924215
  0
LINE
  8
_1-1_
  6
CONTINUOUS
 62
    7
 10
104.19606715917726
 20
189.17712561827932
 11
104.27015064207424
 21
189.0710234223335
  0
LINE
  8
_1-1_
  6
CONTINUOUS
 62
    7
 10
103.88726226052862
 20
187.15653202664078
 11
104.27015064207424
 21
189.0710234223335
  0
LINE
  8
_1-1_
  6
CONTINUOUS
 62
    7
 10
74.228283824084343
 20
159.39675320485026
 11
74.493044434303926
 21
159.19771261152266
  0
LINE
  8
_1-1_
  6
CONTINUOUS
 62
    7
 10
76.287230588231267
 20
159.5565003543436
 11
74.493044434303926
 21
159.19771261152266
  0
ARC
  8
_1-1_
  6
CONTINUOUS
 62
    7
 10
84.287256981812362
 20
179.15650563305974
 40
12.000000154649889
 50
90
 51
180
  0
ARC
  8
_1-1_
  6
CONTINUOUS
 62
    7
 10
86.191850784599552
 20
109.20279337588066
 40
81.97591626966323
 50
77.31280517578125
 51
91.331314086914062
  0
ARC
  8
_1-1_
  6
CONTINUOUS
 62
    7
 10
142.87650357704038
 20
176.1154702128739
 40
70.654734018686653
 50
177.53314208984378
 51
193.68743896484378
  0
LINE
  8
_1-1_
  6
CONTINUOUS
 62
    7
 10
76.287230588231267
 20
159.5565003543436
 11
77.373897295650778
 21
160.86398444034845
  0
LINE
  8
_1-1_
  6
CONTINUOUS
 62
    7
 10
102.56148454117516
 20
186.05466198226333
 11
103.88726226052862
 21
187.15653202664078
  0
ARC
  8
_1-1_
  6
CONTINUOUS
 62
    7
 10
142.87650357704038
 20
176.1154702128739
 40
67.254734018686648
 50
177.46619108858096
 51
193.1070958733612
  0
ARC
  8
_1-1_
  6
CONTINUOUS
 62
    7
 10
86.191850784599552
 20
109.20279337588066
 40
78.575916269663225
 50
77.97556086197109
 51
91.331314086914062
  0
LINE
  8
_0-1_
  6
CONTINUOUS
 62
    7
 10
75.762835867297639
 20
184.26275115582285
 11
68.283986567018076
 21
204.81072989809957
  0
LINE
  8
_1-2_
  6
CONTINUOUS
 62
    7
 10
77.527873166411581
 20
113.48630750501479
 11
78.527876465609239
 21
113.48630750501479
  0
LINE
  8
_1-2_
  6
CONTINUOUS
 62
    7
 10
77.527873166411581
 20
126.89461372994089
 11
77.527873166411581
 21
113.48630750501479
  0
LINE
  8
_1-2_
  6
CONTINUOUS
 62
    7
 10
78.527876465609239
 20
126.89461372994089
 11
78.527876465609239
 21
113.48630750501479
  0
LINE
  8
_1-2_
  6
CONTINUOUS
 62
    7
 10
78.527876465609239
 20
113.48630750501479
 11
86.52787811520804
 21
113.48630750501479
  0
LINE
  8
_1-2_
  6
CONTINUOUS
 62
    7
 10
86.52787811520804
 20
126.89461372994089
 11
86.52787811520804
 21
113.48630750501479
  0
POINT
  8
_1-2_
 62
    7
 10
77.527873166411581
 20
113.48630750501479
  0
POINT
  8
_1-2_
 62
    7
 10
78.527876465609239
 20
113.48630750501479
  0
POINT
  8
_1-2_
 62
    7
 10
86.52787811520804
 20
113.48630750501479
  0
TEXT
  8
_1-2_
 62
    7
 10
81.277880383406426
 20
113.98630915461361
 40
3
 41
1
 50
0
  1
40
  0
TEXT
  8
_1-2_
 62
    7
 10
73.720793162807865
 20
113.69922425463938
 40
3
 41
1
 50
0
  1
5
  0
TEXT
  8
_0-1_
 62
    7
 10
57.303329725000765
 20
202.92601210960103
 40
3
 41
1
 50
0
  1
袖瓦
  0
LINE
  8
_1-1_
  6
CONTINUOUS
 62
    7
 10
134.6146644652211
 20
225.37188019966723
 11
94.614664465221068
 21
225.37188019966723
  0
POINT
  8
_1-1_
 62
    7
 10
134.6146644652211
 20
225.37188019966723
  0
POINT
  8
_1-1_
 62
    7
 10
94.614664465221068
 20
225.37188019966723
  0
LINE
  8
_1-1_
  6
CONTINUOUS
 62
    7
 10
134.6146644652211
 20
225.37188019966723
 11
134.6146644652211
 21
197.41846921797006
  0
LINE
  8
_1-1_
  6
CONTINUOUS
 62
    7
 10
94.614664465221068
 20
225.37188019966723
 11
94.614664465221068
 21
197.41846921797006
  0
TEXT
  8
_1-1_
 62
    7
 10
112.11466446522108
 20
225.87188019966723
 40
3
 41
1
 50
0
  1
200
  0
LINE
  8
_1-1_
  6
CONTINUOUS
 62
    7
 10
90.790115664036179
 20
172.16504071209883
 11
90.089285467094498
 21
170.5650551908771
  0
ENDSEC
  0
EOF
