  0
SECTION
  2
HEADER
  9
$ACADVER
  1
AC1009
  9
$INSBASE
 10
0
 20
0
 30
0
  9
$EXTMIN
 10
0
 20
0
  9
$EXTMAX
 10
420
 20
297
  9
$LIMMIN
 10
0
 20
0
  9
$LIMMAX
 10
420
 20
297
  9
$LTSCALE
 40
1
  0
ENDSEC
  0
SECTION
  2
TABLES
  0
TABLE
  2
LTYPE
 70
     9
  0
LTYPE
  2
CONTINUOUS
 70
    64
  3
実線
 72
    65
 73
     0
 40
0.0
  0
LTYPE
  2
DASHED1
 70
    64
  3
--  --  --  --  --  --  --  --  
 72
    65
 73
     2
 40
2.5
 49
1.25
 49
-1.25
  0
LTYPE
  2
DASHED2
 70
    64
  3
----    ----    ----    ----    
 72
    65
 73
     2
 40
5.0
 49
2.5
 49
-2.5
  0
LTYPE
  2
DASHED3
 70
    64
  3
------  ------  ------  ------  
 72
    65
 73
     2
 40
5.0
 49
3.75
 49
-1.25
  0
LTYPE
  2
CENTER1
 70
    64
  3
----- - ----- - ----- - ----- - 
 72
    65
 73
     4
 40
10.0
 49
6.25
 49
-1.25
 49
1.25
 49
-1.25
  0
LTYPE
  2
CENTER2
 70
    64
  3
----------  --  ----------  --  
 72
    65
 73
     4
 40
20.0
 49
12.5
 49
-2.5
 49
2.5
 49
-2.5
  0
LTYPE
  2
PHANTOM1
 70
    64
  3
--- - - --- - - --- - - --- - - 
 72
    65
 73
     6
 40
10.0
 49
3.25
 49
-1.25
 49
1.25
 49
-1.25
 49
1.25
 49
-1.25
  0
LTYPE
  2
PHANTOM2
 70
    64
  3
--------  -  -  --------  -  -  
 72
    65
 73
     6
 40
20.0
 49
10.0
 49
-2.5
 49
1.25
 49
-2.5
 49
1.25
 49
-2.5
  0
LTYPE
  2
DOT
 70
    64
  3
-   -   -   -   -   -   -   -   
 72
    65
 73
     2
 40
2.5
 49
0.625
 49
-1.875
  0
LTYPE
  2
DUMMY
 70
    64
  3
ダミー
 72
    65
 73
     0
 40
0.0
  0
LTYPE
  2
RAND1
 70
    64
  3
ランダム線1
 72
    65
 73
     4
 40
10.0
 49
1.0
 49
-2.0
 49
3.0
 49
-4.0
  0
LTYPE
  2
RAND2
 70
    64
  3
ランダム線2
 72
    65
 73
     4
 40
14.0
 49
2.0
 49
-3.0
 49
4.0
 49
-5.0
  0
LTYPE
  2
RAND3
 70
    64
  3
ランダム線3
 72
    65
 73
     4
 40
18.0
 49
3.0
 49
-4.0
 49
5.0
 49
-6.0
  0
LTYPE
  2
RAND4
 70
    64
  3
ランダム線4
 72
    65
 73
     4
 40
22.0
 49
4.0
 49
-5.0
 49
6.0
 49
-7.0
  0
LTYPE
  2
RAND5
 70
    64
  3
ランダム線5
 72
    65
 73
     4
 40
26.0
 49
5.0
 49
-6.0
 49
7.0
 49
-8.0
  0
LTYPE
  2
LONG1
 70
    64
  3
----------  --  ----------  --  
 72
    65
 73
     4
 40
40.0
 49
32.5
 49
-2.5
 49
2.5
 49
-2.5
  0
LTYPE
  2
LONG2
 70
    64
  3
--------  -  -  --------  -  -  
 72
    65
 73
     6
 40
40.0
 49
30.0
 49
-2.5
 49
1.25
 49
-2.5
 49
1.25
 49
-2.5
  0
LTYPE
  2
LONG3
 70
    64
  3
+++++++++++++++..+++++++++++++++
 72
    65
 73
     2
 40
40.0
 49
37.5
 49
-2.5
  0
LTYPE
  2
LONG4
 70
    64
  3
+++++++++++++++..+++++++++++++++
 72
    65
 73
     2
 40
80.0
 49
75.0
 49
-5.0
  0
LTYPE
  2
LONG5
 70
    64
  3
----------  --  ----------  --  
 72
    65
 73
     4
 40
60.0
 49
37.5
 49
-7.5
 49
7.5
 49
-7.5
  0
LTYPE
  2
dashed
 70
   64
  3
-------   -------------   ------
 72
   65
 73
    2
 40
7.5
 49
6
 49
-1.5
  0
LTYPE
  2
dashed_spaced
 70
   64
  3
----        --------        ----
 72
   65
 73
    2
 40
12
 49
6
 49
-6
  0
LTYPE
  2
long_dashed_dotted
 70
   64
  3
------------- --- --------------
 72
   65
 73
    4
 40
15.25
 49
12
 49
-1.5
 49
0.25
 49
-1.5
  0
LTYPE
  2
long_dashed_double-dotted
 70
   64
  3
----------- --- --- ------------
 72
   65
 73
    6
 40
17
 49
12
 49
-1.5
 49
0.25
 49
-1.5
 49
0.25
 49
-1.5
  0
LTYPE
  2
long_dashed_triplicate-dotted
 70
   64
  3
--------- --- --- --- ----------
 72
   65
 73
    8
 40
18.75
 49
12
 49
-1.5
 49
0.25
 49
-1.5
 49
0.25
 49
-1.5
 49
0.25
 49
-1.5
  0
LTYPE
  2
dotted
 70
   64
  3
   -       -       -       -    
 72
   65
 73
    2
 40
1.75
 49
0.25
 49
-1.5
  0
LTYPE
  2
chain
 70
   64
  3
-------------- -- --------------
 72
   65
 73
    4
 40
18.5
 49
12
 49
-1.5
 49
3.5
 49
-1.5
  0
LTYPE
  2
chain_double_dash
 70
   64
  3
------------ -- -- -------------
 72
   65
 73
    6
 40
23.5
 49
12
 49
-1.5
 49
3.5
 49
-1.5
 49
3.5
 49
-1.5
  0
LTYPE
  2
dashed_dotted
 70
   64
  3
-----------     -     ----------
 72
   65
 73
    4
 40
9.25
 49
6
 49
-1.5
 49
0.25
 49
-1.5
  0
LTYPE
  2
double-dashed_dotted
 70
   64
  3
------   -----------   -   -----
 72
   65
 73
    6
 40
16.75
 49
6
 49
-1.5
 49
6
 49
-1.5
 49
0.25
 49
-1.5
  0
LTYPE
  2
dashed_double-dotted
 70
   64
  3
---------    -    -    ---------
 72
   65
 73
    6
 40
11
 49
6
 49
-1.5
 49
0.25
 49
-1.5
 49
0.25
 49
-1.5
  0
LTYPE
  2
double-dashed_double-dotted
 70
   64
  3
-----   ---------   -   -   ----
 72
   65
 73
    8
 40
18.5
 49
6
 49
-1.5
 49
6
 49
-1.5
 49
0.25
 49
-1.5
 49
0.25
 49
-1.5
  0
LTYPE
  2
dashed_triplicate-dotted
 70
   64
  3
-------    -    -    -    ------
 72
   65
 73
    8
 40
12.75
 49
6
 49
-1.5
 49
0.25
 49
-1.5
 49
0.25
 49
-1.5
 49
0.25
 49
-1.5
  0
LTYPE
  2
double-dashed_triplicate-dotted
 70
   64
  3
-----  ---------  -  -  -  -----
 72
   65
 73
   10
 40
20.25
 49
6
 49
-1.5
 49
6
 49
-1.5
 49
0.25
 49
-1.5
 49
0.25
 49
-1.5
 49
0.25
 49
-1.5
  0
LTYPE
  2
undefined
 70
   64
  3
--------------------------------
 72
   65
 73
    0
 40
0
  0
ENDTAB
  0
TABLE
  2
STYLE
  5
3
100
AcDbSymbolTable
 70
     1
  0
STYLE
  5
10
100
AcDbSymbolTableRecord
100
AcDbTextStyleTableRecord
  2
STANDARD
 70
     0
 40
0.0
 41
1.0
 50
0.0
 71
     0
 42
0.2
  3
txt
  4
bigfont.shx
  0
STYLE
  5
26
100
AcDbSymbolTableRecord
100
AcDbTextStyleTableRecord
  2
TATEGAKI
 70
    68
 40
0.0
 41
1.0
 50
0.0
 71
     0
 42
1.0
  3
txt
  4
bigfont.shx
  0
ENDTAB
  0
TABLE
  2
LAYER
 70
    5
  0
LAYER
  2
_0-0_
 70
   64
 62
    7
  6
CONTINUOUS
  0
LAYER
  2
_0-1_
 70
   64
 62
    7
  6
CONTINUOUS
  0
LAYER
  2
_1-0_
 70
   64
 62
    7
  6
CONTINUOUS
  0
LAYER
  2
_1-1_
 70
   64
 62
    7
  6
CONTINUOUS
  0
LAYER
  2
ADD_LINE
 70
   64
 62
    7
  6
CONTINUOUS
  0
ENDTAB
  0
ENDSEC
  0
SECTION
  2
BLOCKS
  0
ENDSEC
  0
SECTION
  2
ENTITIES
  0
LINE
  8
_0-1_
  6
CONTINUOUS
 62
    7
 10
213.43723875492589
 20
25.680406435124397
 11
213.43723875492589
 21
11.080383165471062
  0
LINE
  8
ADD_LINE
  6
DOT
 62
    7
 10
125.83724028080478
 20
22.837598665349006
 11
205.20020872562901
 21
22.837598665349006
  0
LINE
  8
_0-1_
  6
CONTINUOUS
 62
    7
 10
7.5772534033633576
 20
25.680406435124397
 11
412.72727781742583
 21
25.680406435124397
  0
LINE
  8
_0-1_
  6
CONTINUOUS
 62
    5
 10
7.5772534033633576
 20
293.59038720905016
 11
412.72727781742583
 21
293.59038720905016
  0
LINE
  8
_0-1_
  6
CONTINUOUS
 62
    5
 10
7.5772534033633576
 20
8.8904055195970386
 11
412.72727781742583
 21
8.8904055195970386
  0
LINE
  8
_0-1_
  6
CONTINUOUS
 62
    7
 10
412.72727781742583
 20
25.680406435124397
 11
412.72727781742583
 21
11.080383165471062
  0
LINE
  8
_0-1_
  6
CONTINUOUS
 62
    7
 10
7.5772534033633576
 20
14.834709509007439
 11
7.5772534033633576
 21
11.080383165471062
  0
LINE
  8
_0-1_
  6
CONTINUOUS
 62
    7
 10
7.5772534033633576
 20
25.680406435124397
 11
7.5772534033633576
 21
19.857313974492058
  0
LINE
  8
_0-1_
  6
CONTINUOUS
 62
    7
 10
7.5772534033633576
 20
19.857313974492058
 11
7.5772534033633576
 21
19.500179155461296
  0
LINE
  8
_0-1_
  6
CONTINUOUS
 62
    7
 10
7.5772534033633576
 20
19.857313974492058
 11
7.5772534033633576
 21
14.834709509007439
  0
LINE
  8
_0-1_
  6
CONTINUOUS
 62
    7
 10
7.5772534033633576
 20
11.080383165471062
 11
412.72727781742583
 21
11.080383165471062
  0
LINE
  8
_0-1_
  6
CONTINUOUS
 62
    7
 10
407.77128416508208
 20
21.534768922917365
 11
399.9884777685977
 21
13.751917703740105
  0
LINE
  8
_0-1_
  6
CONTINUOUS
 62
    7
 10
412.72727781742583
 20
11.080383165471062
 11
412.72727781742583
 21
25.680406435124397
  0
LINE
  8
_0-1_
  6
CONTINUOUS
 62
    7
 10
290.08723265141026
 20
25.680406435124397
 11
290.08723265141026
 21
19.020202501408562
  0
LINE
  8
_0-1_
  6
CONTINUOUS
 62
    7
 10
290.08723265141026
 20
19.020202501408562
 11
290.08723265141026
 21
11.080383165471062
  0
LINE
  8
_0-1_
  6
CONTINUOUS
 62
    7
 10
213.43723875492589
 20
18.380405290715203
 11
288.84425169437901
 21
18.380405290715203
  0
LINE
  8
_0-1_
  6
CONTINUOUS
 62
    7
 10
306.87721067875401
 20
25.680406435124397
 11
306.87721067875401
 21
19.857313974492058
  0
LINE
  8
_0-1_
  6
CONTINUOUS
 62
    7
 10
306.87721067875401
 20
19.857313974492058
 11
306.87721067875401
 21
11.080383165471062
  0
LINE
  8
_0-1_
  6
CONTINUOUS
 62
    7
 10
213.43723875492589
 20
18.380405290715203
 11
290.08723265141026
 21
18.380405290715203
  0
LINE
  8
_0-1_
  6
CONTINUOUS
 62
    7
 10
394.4772472998477
 20
25.680406435124397
 11
394.4772472998477
 21
11.080383165471062
  0
LINE
  8
ADD_LINE
  6
DOT
 62
    7
 10
18.655595841107498
 20
22.837598665349006
 11
48.897417130169998
 21
22.837598665349006
  0
LINE
  8
ADD_LINE
  6
DOT
 62
    7
 10
48.897417130169998
 20
22.837598665349006
 11
127.16582304447665
 21
22.837598665349006
  0
LINE
  8
ADD_LINE
  6
DOT
 62
    7
 10
205.20020872562901
 20
22.837598665349006
 11
328.84751707523839
 21
22.837598665349006
  0
LINE
  8
_0-1_
  6
CONTINUOUS
 62
    7
 10
263.07722288578526
 20
18.380405290715203
 11
263.07722288578526
 21
11.080383165471062
  0
LINE
  8
ADD_LINE
  6
DOT
 62
    7
 10
214.60806089848057
 20
15.584670408360466
 11
273.05274778812901
 21
15.584670408360466
  0
LINE
  8
ADD_LINE
  6
DOT
 62
    7
 10
328.84751707523839
 20
22.837598665349006
 11
403.85075193851958
 21
22.837598665349006
  0
TEXT
  8
_0-1_
 62
    7
 10
9.3539288660861359
 20
22.597051485173225
 40
2
 41
1
 50
0
  1
特記
  0
TEXT
  8
_0-1_
 62
    7
 10
213.43606382816807
 20
22.583328111760139
 40
2
 41
1
 50
0
  1
図面名
  0
TEXT
  8
_0-1_
 62
    7
 10
213.76429563969151
 20
15.247170789830193
 40
2
 41
1
 50
0
  1
SCALE
  0
TEXT
  8
_0-1_
 62
    7
 10
263.93104368656651
 20
15.16264854251574
 40
2
 41
1
 50
0
  1
DATE
  0
TEXT
  8
_0-1_
 62
    7
 10
291.17832762211339
 20
22.653281076542854
 40
2
 41
1
 50
0
  1
担当
  0
TEXT
  8
_0-1_
 62
    7
 10
395.47913938969145
 20
22.372781618229865
 40
2.5
 41
1
 50
0
  1
NO
  0
LINE
  8
_0-1_
  6
CONTINUOUS
 62
    4
 10
18.11883360355867
 20
22.111630304448127
 11
213.43723875492589
 21
22.111630304448127
  0
LINE
  8
_0-1_
  6
CONTINUOUS
 62
    4
 10
18.11883360355867
 20
18.461629732243523
 11
213.43723875492589
 21
18.461629732243523
  0
LINE
  8
_0-1_
  6
CONTINUOUS
 62
    4
 10
18.11883360355867
 20
14.811652048222527
 11
213.43723875492589
 21
14.811652048222527
  0
LINE
  8
ADD_LINE
  6
DOT
 62
    4
 10
311.249670296575
 20
19.812035451072745
 11
345.00828120240271
 21
19.812035451072745
  0
TEXT
  8
_0-1_
 62
    7
 10
310.64143599415735
 20
19.578707430822249
 40
3
 41
1
 50
0
  1
株式会社
  0
TEXT
  8
_0-1_
 62
    3
 10
328.38745303781229
 20
19.490272438212457
 40
5
 41
1
 50
0
  1
神　清
  0
TEXT
  8
_0-1_
 62
    7
 10
223.82205475621606
 20
12.751538617002723
 40
3
 41
1
 50
0
  1
1/5
  0
LINE
  8
ADD_LINE
  6
DOT
 62
    4
 10
-1.4803103548929641
 20
169.32435627486902
 11
30.610872613503346
 21
169.32435627486902
  0
LINE
  8
_1-1_
  6
CONTINUOUS
 62
    7
 10
1.574983256187835
 20
170.24991127984936
 11
1.5749908770567629
 21
170.24992044932588
  0
TEXT
  8
_1-1_
 62
    7
 10
397.98668885191353
 20
16.769550748752067
 40
3
 41
1
 50
0
  1
12
  0
TEXT
  8
_0-1_
 62
    7
 10
223.13368456897959
 20
20.065471856390189
 40
3
 41
1
 50
0
  1
Ｎｏｖｕｍ　袖　3
  0
LINE
  8
_1-0_
  6
CONTINUOUS
 62
    7
 10
133.44813707596907
 20
148.87791359972871
 11
133.44813707596907
 21
160.87791607412694
  0
LINE
  8
_1-0_
  6
CONTINUOUS
 62
    7
 10
133.44813707596907
 20
160.87791607412694
 11
145.4481395503673
 21
160.87791607412694
  0
LINE
  8
_1-0_
  6
CONTINUOUS
 62
    7
 10
145.4481395503673
 20
160.87791607412694
 11
145.4481395503673
 21
148.87791359972871
  0
LINE
  8
_1-0_
  6
CONTINUOUS
 62
    7
 10
145.4481395503673
 20
148.87791359972871
 11
133.44813707596907
 21
148.87791359972871
  0
LINE
  8
_1-0_
  6
CONTINUOUS
 62
    7
 10
145.4481395503673
 20
160.87791607412694
 11
133.44813707596907
 21
148.87791359972871
  0
LINE
  8
_1-0_
  6
CONTINUOUS
 62
    7
 10
194.04812915789475
 20
148.87791359972871
 11
194.04812915789475
 21
160.87791607412694
  0
LINE
  8
_1-0_
  6
CONTINUOUS
 62
    7
 10
194.04812915789475
 20
160.87791607412694
 11
206.04811926030183
 21
160.87791607412694
  0
LINE
  8
_1-0_
  6
CONTINUOUS
 62
    7
 10
206.04811926030183
 20
160.87791607412694
 11
206.04811926030183
 21
148.87791359972871
  0
LINE
  8
_1-0_
  6
CONTINUOUS
 62
    7
 10
206.04811926030183
 20
148.87791359972871
 11
194.04812915789475
 21
148.87791359972871
  0
LINE
  8
_1-0_
  6
CONTINUOUS
 62
    7
 10
206.04811926030183
 20
160.87791607412694
 11
194.04812915789475
 21
148.87791359972871
  0
LINE
  8
_1-0_
  6
CONTINUOUS
 62
    7
 10
254.6481212398204
 20
148.87791359972871
 11
254.6481212398204
 21
160.87791607412694
  0
LINE
  8
_1-0_
  6
CONTINUOUS
 62
    7
 10
254.6481212398204
 20
160.87791607412694
 11
266.64811134222754
 21
160.87791607412694
  0
LINE
  8
_1-0_
  6
CONTINUOUS
 62
    7
 10
266.64811134222754
 20
160.87791607412694
 11
266.64811134222754
 21
148.87791359972871
  0
LINE
  8
_1-0_
  6
CONTINUOUS
 62
    7
 10
266.64811134222754
 20
148.87791359972871
 11
254.6481212398204
 21
148.87791359972871
  0
LINE
  8
_1-0_
  6
CONTINUOUS
 62
    7
 10
266.64811134222754
 20
160.87791607412694
 11
254.6481212398204
 21
148.87791359972871
  0
LINE
  8
_1-0_
  6
CONTINUOUS
 62
    7
 10
315.24811332174608
 20
148.87791359972871
 11
315.24811332174608
 21
160.87791607412694
  0
LINE
  8
_1-0_
  6
CONTINUOUS
 62
    7
 10
315.24811332174608
 20
160.87791607412694
 11
327.24810342415321
 21
160.87791607412694
  0
LINE
  8
_1-0_
  6
CONTINUOUS
 62
    7
 10
327.24810342415321
 20
160.87791607412694
 11
327.24810342415321
 21
148.87791359972871
  0
LINE
  8
_1-0_
  6
CONTINUOUS
 62
    7
 10
327.24810342415321
 20
148.87791359972871
 11
315.24811332174608
 21
148.87791359972871
  0
LINE
  8
_1-0_
  6
CONTINUOUS
 62
    7
 10
327.24810342415321
 20
160.87791607412694
 11
315.24811332174608
 21
148.87791359972871
  0
LINE
  8
_1-0_
  6
CONTINUOUS
 62
    7
 10
375.84810540367175
 20
148.87791359972871
 11
375.84810540367175
 21
160.87791607412694
  0
LINE
  8
_1-0_
  6
CONTINUOUS
 62
    7
 10
383.67044526061858
 20
156.70026582866666
 11
375.84810540367175
 21
148.87791359972871
  0
LINE
  8
_1-0_
  6
CONTINUOUS
 62
    7
 10
375.84810540367175
 20
160.87791607412694
 11
383.67044526061858
 21
160.87791607412694
  0
LINE
  8
_1-0_
  6
CONTINUOUS
 62
    7
 10
375.84810540367175
 20
148.87791359972871
 11
383.67044526061858
 21
148.87791359972871
  0
LINE
  8
_1-0_
  6
CONTINUOUS
 62
    7
 10
140.04814895308056
 20
164.47793042563666
 11
140.04814895308056
 21
165.07793487955348
  0
LINE
  8
_1-0_
  6
CONTINUOUS
 62
    7
 10
140.04814895308056
 20
165.07793487955348
 11
144.84814746844162
 21
165.07793487955348
  0
LINE
  8
_1-0_
  6
CONTINUOUS
 62
    7
 10
144.84814746844162
 20
165.07793487955348
 11
144.84814746844162
 21
164.47793042563666
  0
LINE
  8
_1-0_
  6
CONTINUOUS
 62
    7
 10
144.84814746844162
 20
164.47793042563666
 11
140.04814895308056
 21
164.47793042563666
  0
LINE
  8
_1-0_
  6
CONTINUOUS
 62
    7
 10
140.04814895308056
 20
165.07793487955348
 11
144.84814746844162
 21
164.47793042563666
  0
LINE
  8
_1-0_
  6
CONTINUOUS
 62
    7
 10
200.64814103500623
 20
164.47793042563666
 11
200.64814103500623
 21
165.07793487955348
  0
LINE
  8
_1-0_
  6
CONTINUOUS
 62
    7
 10
200.64814103500623
 20
165.07793487955348
 11
205.44812717837615
 21
165.07793487955348
  0
LINE
  8
_1-0_
  6
CONTINUOUS
 62
    7
 10
205.44812717837615
 20
165.07793487955348
 11
205.44812717837615
 21
164.47793042563666
  0
LINE
  8
_1-0_
  6
CONTINUOUS
 62
    7
 10
205.44812717837615
 20
164.47793042563666
 11
200.64814103500623
 21
164.47793042563666
  0
LINE
  8
_1-0_
  6
CONTINUOUS
 62
    7
 10
200.64814103500623
 20
165.07793487955348
 11
205.44812717837615
 21
164.47793042563666
  0
LINE
  8
_1-0_
  6
CONTINUOUS
 62
    7
 10
261.24813311693191
 20
164.47793042563666
 11
261.24813311693191
 21
165.07793487955348
  0
LINE
  8
_1-0_
  6
CONTINUOUS
 62
    7
 10
261.24813311693191
 20
165.07793487955348
 11
266.04811926030186
 21
165.07793487955348
  0
LINE
  8
_1-0_
  6
CONTINUOUS
 62
    7
 10
266.04811926030186
 20
165.07793487955348
 11
266.04811926030186
 21
164.47793042563666
  0
LINE
  8
_1-0_
  6
CONTINUOUS
 62
    7
 10
266.04811926030186
 20
164.47793042563666
 11
261.24813311693191
 21
164.47793042563666
  0
LINE
  8
_1-0_
  6
CONTINUOUS
 62
    7
 10
261.24813311693191
 20
165.07793487955348
 11
266.04811926030186
 21
164.47793042563666
  0
LINE
  8
_1-0_
  6
CONTINUOUS
 62
    7
 10
321.84812519885759
 20
164.47793042563666
 11
321.84812519885759
 21
165.07793487955348
  0
LINE
  8
_1-0_
  6
CONTINUOUS
 62
    7
 10
321.84812519885759
 20
165.07793487955348
 11
326.64811134222754
 21
165.07793487955348
  0
LINE
  8
_1-0_
  6
CONTINUOUS
 62
    7
 10
326.64811134222754
 20
165.07793487955348
 11
326.64811134222754
 21
164.47793042563666
  0
LINE
  8
_1-0_
  6
CONTINUOUS
 62
    7
 10
326.64811134222754
 20
164.47793042563666
 11
321.84812519885759
 21
164.47793042563666
  0
LINE
  8
_1-0_
  6
CONTINUOUS
 62
    7
 10
321.84812519885759
 20
165.07793487955348
 11
326.64811134222754
 21
164.47793042563666
  0
LINE
  8
_1-0_
  6
CONTINUOUS
 62
    7
 10
382.44811728078332
 20
164.47793042563666
 11
382.44811728078332
 21
165.07793487955348
  0
LINE
  8
_1-0_
  6
CONTINUOUS
 62
    7
 10
383.67047000460082
 20
164.47793042563666
 11
382.44811728078332
 21
164.47793042563666
  0
LINE
  8
_1-0_
  6
CONTINUOUS
 62
    7
 10
382.44811728078332
 20
165.07793487955348
 11
383.67044526061858
 21
164.92514078907629
  0
LINE
  8
_1-0_
  6
CONTINUOUS
 62
    7
 10
382.44811728078332
 20
165.07793487955348
 11
383.67047000460082
 21
165.07793487955348
  0
LINE
  8
_1-0_
  6
CONTINUOUS
 62
    7
 10
229.89587448623092
 20
84.094277042639419
 11
235.82111796701636
 21
84.094277042639419
  0
LINE
  8
_1-0_
  6
CONTINUOUS
 62
    7
 10
38.039628362788108
 20
163.27792151780307
 11
38.039628362788108
 21
172.27792646659952
  0
LINE
  8
_1-0_
  6
CONTINUOUS
 62
    7
 10
55.601979074095084
 20
163.27792151780307
 11
38.039628362788108
 21
163.27792151780307
  0
LINE
  8
_1-0_
  6
CONTINUOUS
 62
    7
 10
55.601979074095084
 20
172.27792646659952
 11
38.039628362788108
 21
172.27792646659952
  0
POINT
  8
_1-0_
 62
    7
 10
38.039628362788108
 20
163.27792151780307
  0
POINT
  8
_1-0_
 62
    7
 10
38.039628362788108
 20
172.27792646659952
  0
LINE
  8
_1-0_
  6
CONTINUOUS
 62
    3
 10
196.24812899293485
 20
168.07793240515525
 11
315.44809418639983
 21
168.07793240515525
  0
LINE
  8
_1-0_
  6
CONTINUOUS
 62
    3
 10
257.44812552877733
 20
168.07793240515525
 11
376.64812783821571
 21
168.07793240515525
  0
LINE
  8
_1-0_
  6
CONTINUOUS
 62
    3
 10
318.64813443661103
 20
168.07793240515525
 11
383.67044526061858
 21
168.07793240515525
  0
LINE
  8
_1-1_
  6
CONTINUOUS
 62
    7
 10
97.151834574776586
 20
177.59629469004437
 11
104.15183911117335
 21
171.99628611213052
  0
LINE
  8
ADD_LINE
  6
DOT
 62
    4
 10
72.096319388569867
 20
168.59628974124792
 11
104.1875075616062
 21
168.59628974124792
  0
LINE
  8
_1-1_
  6
CONTINUOUS
 62
    7
 10
112.15182838878101
 20
168.59628974124792
 11
104.15183911117335
 21
168.59628974124792
  0
LINE
  8
_1-1_
  6
CONTINUOUS
 62
    7
 10
104.15183911117335
 20
171.99628611213052
 11
112.15182838878101
 21
171.99628611213052
  0
LINE
  8
_1-1_
  6
CONTINUOUS
 62
    7
 10
131.15182921358044
 20
173.14304597013307
 11
131.15182921358044
 21
172.27162477476776
  0
LINE
  8
_1-1_
  6
CONTINUOUS
 62
    7
 10
134.15183911117336
 20
174.59628479245146
 11
134.15183911117336
 21
173.98143394917656
  0
LINE
  8
_1-1_
  6
CONTINUOUS
 62
    7
 10
136.1518333375775
 20
176.59629139084677
 11
136.1518333375775
 21
175.26221958710943
  0
LINE
  8
_1-1_
  6
CONTINUOUS
 62
    7
 10
128.15183168797867
 20
173.76232598623318
 11
128.15183168797867
 21
170.99629518492401
  0
LINE
  8
_1-1_
  6
CONTINUOUS
 62
    7
 10
131.15182921358044
 20
174.65851590784422
 11
131.15182921358044
 21
175.29091023454396
  0
LINE
  8
_1-1_
  6
CONTINUOUS
 62
    7
 10
134.55183795645416
 20
175.9129739486487
 11
134.55183795645416
 21
176.56160032771328
  0
LINE
  8
_1-1_
  6
CONTINUOUS
 62
    7
 10
132.55183135805891
 20
175.14342372826229
 11
132.55183135805891
 21
175.78199167853677
  0
LINE
  8
_1-1_
  6
CONTINUOUS
 62
    7
 10
150.15183003837984
 20
177.59629469004437
 11
157.15182838878104
 21
171.99628611213052
  0
LINE
  8
_1-1_
  6
CONTINUOUS
 62
    7
 10
165.15183003837984
 20
168.59628974124792
 11
157.15182838878104
 21
168.59628974124792
  0
LINE
  8
_1-1_
  6
CONTINUOUS
 62
    7
 10
157.15182838878104
 20
171.99628611213052
 11
165.15183003837984
 21
171.99628611213052
  0
LINE
  8
_1-1_
  6
CONTINUOUS
 62
    7
 10
128.15183168797867
 20
176.99629023612761
 11
128.15183168797867
 21
174.59628479245146
  0
LINE
  8
_1-1_
  6
CONTINUOUS
 62
    7
 10
184.15183086317927
 20
173.14304597013307
 11
184.15183086317927
 21
172.27162477476776
  0
LINE
  8
_1-1_
  6
CONTINUOUS
 62
    7
 10
187.15182838878104
 20
174.59628479245146
 11
187.15182838878104
 21
173.98143394917656
  0
LINE
  8
_1-1_
  6
CONTINUOUS
 62
    7
 10
189.1518349871763
 20
176.59629139084677
 11
189.1518349871763
 21
175.26221958710943
  0
LINE
  8
_1-1_
  6
CONTINUOUS
 62
    7
 10
181.1518333375775
 20
173.76232598623318
 11
181.1518333375775
 21
170.99629518492401
  0
LINE
  8
_1-1_
  6
CONTINUOUS
 62
    7
 10
184.15183086317927
 20
174.65851590784422
 11
184.15183086317927
 21
175.29091023454396
  0
LINE
  8
_1-1_
  6
CONTINUOUS
 62
    7
 10
187.55183960605299
 20
175.9129739486487
 11
187.55183960605299
 21
176.56160032771328
  0
LINE
  8
_1-1_
  6
CONTINUOUS
 62
    7
 10
185.55183300765773
 20
175.14342372826229
 11
185.55183300765773
 21
175.78199167853677
  0
LINE
  8
_1-1_
  6
CONTINUOUS
 62
    7
 10
203.15183168797867
 20
177.59629469004437
 11
210.15183003837987
 21
171.99628611213052
  0
LINE
  8
_1-1_
  6
CONTINUOUS
 62
    7
 10
218.15183168797867
 20
168.59628974124792
 11
210.15183003837987
 21
168.59628974124792
  0
LINE
  8
_1-1_
  6
CONTINUOUS
 62
    7
 10
210.15183003837987
 20
171.99628611213052
 11
218.15183168797867
 21
171.99628611213052
  0
LINE
  8
_1-1_
  6
CONTINUOUS
 62
    7
 10
181.1518333375775
 20
176.99629023612761
 11
181.1518333375775
 21
174.59628479245146
  0
LINE
  8
_1-1_
  6
CONTINUOUS
 62
    7
 10
237.15184488476922
 20
173.14304597013307
 11
237.15184488476922
 21
172.27162477476776
  0
LINE
  8
_1-1_
  6
CONTINUOUS
 62
    7
 10
240.15183003837987
 20
174.59628479245146
 11
240.15183003837987
 21
173.98143394917656
  0
LINE
  8
_1-1_
  6
CONTINUOUS
 62
    7
 10
242.15183663677513
 20
176.59629139084677
 11
242.15183663677513
 21
175.26221958710943
  0
LINE
  8
_1-1_
  6
CONTINUOUS
 62
    7
 10
234.1518349871763
 20
173.76232598623318
 11
234.1518349871763
 21
170.99629518492401
  0
LINE
  8
_1-1_
  6
CONTINUOUS
 62
    7
 10
237.15184488476922
 20
174.65851590784422
 11
237.15184488476922
 21
175.29091023454396
  0
LINE
  8
_1-1_
  6
CONTINUOUS
 62
    7
 10
240.55184125565182
 20
175.9129739486487
 11
240.55184125565182
 21
176.56160032771328
  0
LINE
  8
_1-1_
  6
CONTINUOUS
 62
    7
 10
238.55183465725653
 20
175.14342372826229
 11
238.55183465725653
 21
175.78199167853677
  0
LINE
  8
_1-1_
  6
CONTINUOUS
 62
    7
 10
256.1518333375775
 20
177.59629469004437
 11
263.1518316879787
 21
171.99628611213052
  0
LINE
  8
_1-1_
  6
CONTINUOUS
 62
    7
 10
271.1518333375775
 20
168.59628974124792
 11
263.1518316879787
 21
168.59628974124792
  0
LINE
  8
_1-1_
  6
CONTINUOUS
 62
    7
 10
263.1518316879787
 20
171.99628611213052
 11
271.1518333375775
 21
171.99628611213052
  0
LINE
  8
_1-1_
  6
CONTINUOUS
 62
    7
 10
234.1518349871763
 20
176.99629023612761
 11
234.1518349871763
 21
174.59628479245146
  0
LINE
  8
_1-1_
  6
CONTINUOUS
 62
    7
 10
290.15184653436802
 20
173.14304597013307
 11
290.15184653436802
 21
172.27162477476776
  0
LINE
  8
_1-1_
  6
CONTINUOUS
 62
    7
 10
293.15183168797864
 20
174.59628479245146
 11
293.15183168797864
 21
173.98143394917656
  0
LINE
  8
_1-1_
  6
CONTINUOUS
 62
    7
 10
295.15183828637396
 20
176.59629139084677
 11
295.15183828637396
 21
175.26221958710943
  0
LINE
  8
_1-1_
  6
CONTINUOUS
 62
    7
 10
287.1518366367751
 20
173.76232598623318
 11
287.1518366367751
 21
170.99629518492401
  0
LINE
  8
_1-1_
  6
CONTINUOUS
 62
    7
 10
290.15184653436802
 20
174.65851590784422
 11
290.15184653436802
 21
175.29091023454396
  0
LINE
  8
_1-1_
  6
CONTINUOUS
 62
    7
 10
293.55184290525062
 20
175.9129739486487
 11
293.55184290525062
 21
176.56160032771328
  0
LINE
  8
_1-1_
  6
CONTINUOUS
 62
    7
 10
291.55183630685542
 20
175.14342372826229
 11
291.55183630685542
 21
175.78199167853677
  0
LINE
  8
_1-1_
  6
CONTINUOUS
 62
    7
 10
309.15183498717636
 20
177.59629469004437
 11
316.1518333375775
 21
171.99628611213052
  0
LINE
  8
_1-1_
  6
CONTINUOUS
 62
    7
 10
324.15183498717636
 20
168.59628974124792
 11
316.1518333375775
 21
168.59628974124792
  0
LINE
  8
_1-1_
  6
CONTINUOUS
 62
    7
 10
316.1518333375775
 20
171.99628611213052
 11
324.15183498717636
 21
171.99628611213052
  0
LINE
  8
_1-1_
  6
CONTINUOUS
 62
    7
 10
287.1518366367751
 20
176.99629023612761
 11
287.1518366367751
 21
174.59628479245146
  0
LINE
  8
_1-1_
  6
CONTINUOUS
 62
    7
 10
343.15182343998458
 20
173.14304597013307
 11
343.15182343998458
 21
172.27162477476776
  0
LINE
  8
_1-1_
  6
CONTINUOUS
 62
    7
 10
346.1518333375775
 20
174.59628479245146
 11
346.1518333375775
 21
173.98143394917656
  0
LINE
  8
_1-1_
  6
CONTINUOUS
 62
    7
 10
348.15183993597282
 20
176.59629139084677
 11
348.15183993597282
 21
175.26221958710943
  0
LINE
  8
_1-1_
  6
CONTINUOUS
 62
    7
 10
340.15183828637396
 20
173.76232598623318
 11
340.15183828637396
 21
170.99629518492401
  0
LINE
  8
_1-1_
  6
CONTINUOUS
 62
    7
 10
343.15182343998458
 20
174.65851590784422
 11
343.15182343998458
 21
175.29091023454396
  0
LINE
  8
_1-1_
  6
CONTINUOUS
 62
    7
 10
346.55184455484948
 20
175.9129739486487
 11
346.55184455484948
 21
176.56160032771328
  0
LINE
  8
_1-1_
  6
CONTINUOUS
 62
    7
 10
344.55183795645416
 20
175.14342372826229
 11
344.55183795645416
 21
175.78199167853677
  0
LINE
  8
_1-1_
  6
CONTINUOUS
 62
    7
 10
362.15183663677516
 20
177.59629469004437
 11
369.15183498717636
 21
171.99628611213052
  0
LINE
  8
_1-1_
  6
CONTINUOUS
 62
    7
 10
377.15183663677516
 20
168.59628974124792
 11
369.15183498717636
 21
168.59628974124792
  0
LINE
  8
_1-1_
  6
CONTINUOUS
 62
    7
 10
369.15183498717636
 20
171.99628611213052
 11
377.15183663677516
 21
171.99628611213052
  0
LINE
  8
_1-1_
  6
CONTINUOUS
 62
    7
 10
340.15183828637396
 20
176.99629023612761
 11
340.15183828637396
 21
174.59628479245146
  0
LINE
  8
_1-1_
  6
CONTINUOUS
 62
    7
 10
136.1518333375775
 20
176.59629139084677
 11
136.1518333375775
 21
176.95514099362333
  0
LINE
  8
_1-1_
  6
CONTINUOUS
 62
    7
 10
189.1518349871763
 20
176.59629139084677
 11
189.1518349871763
 21
176.95514099362333
  0
LINE
  8
_1-1_
  6
CONTINUOUS
 62
    7
 10
242.15183663677513
 20
176.59629139084677
 11
242.15183663677513
 21
176.95514099362333
  0
LINE
  8
_1-1_
  6
CONTINUOUS
 62
    7
 10
295.15183828637396
 20
176.59629139084677
 11
295.15183828637396
 21
176.95514099362333
  0
LINE
  8
_1-1_
  6
CONTINUOUS
 62
    7
 10
348.15183993597282
 20
176.59629139084677
 11
348.15183993597282
 21
176.95514099362333
  0
LINE
  8
ADD_LINE
  6
DOT
 62
    4
 10
58.62437164126203
 20
186.04904935510984
 11
83.63840972719953
 21
161.03506075713688
  0
LINE
  8
_1-1_
  6
CONTINUOUS
 62
    7
 10
75.151613528535023
 20
169.52183839781463
 11
75.151619714530597
 21
169.52185076980578
  0
LINE
  8
_1-1_
  6
CONTINUOUS
 62
    7
 10
128.15183168797867
 20
218.96415027756552
 11
128.15183168797867
 21
191.01073742257182
  0
LINE
  8
_1-1_
  6
CONTINUOUS
 62
    7
 10
128.15183168797867
 20
218.96415027756552
 11
181.1518333375775
 21
218.96415027756552
  0
LINE
  8
_1-1_
  6
CONTINUOUS
 62
    7
 10
181.1518333375775
 20
218.96415027756552
 11
181.1518333375775
 21
191.01073742257182
  0
LINE
  8
_1-1_
  6
CONTINUOUS
 62
    7
 10
181.1518333375775
 20
218.96415027756552
 11
234.1518349871763
 21
218.96415027756552
  0
LINE
  8
_1-1_
  6
CONTINUOUS
 62
    7
 10
234.1518349871763
 20
218.96415027756552
 11
234.1518349871763
 21
191.01073742257182
  0
LINE
  8
_1-1_
  6
CONTINUOUS
 62
    7
 10
234.1518349871763
 20
218.96415027756552
 11
287.1518366367751
 21
218.96415027756552
  0
LINE
  8
_1-1_
  6
CONTINUOUS
 62
    7
 10
287.1518366367751
 20
218.96415027756552
 11
287.1518366367751
 21
191.01073742257182
  0
LINE
  8
_1-1_
  6
CONTINUOUS
 62
    7
 10
287.1518366367751
 20
218.96415027756552
 11
340.15183828637396
 21
218.96415027756552
  0
LINE
  8
_1-1_
  6
CONTINUOUS
 62
    7
 10
340.15183828637396
 20
218.96415027756552
 11
340.15183828637396
 21
191.01073742257182
  0
ARC
  8
_1-1_
  6
CONTINUOUS
 62
    7
 10
113.0773151853921
 20
216.95976399430958
 40
48.372338784707559
 50
268.90371704101562
 51
288.15779113769531
  0
ARC
  8
_1-1_
  6
CONTINUOUS
 62
    7
 10
114.35176636386549
 20
225.42708049293714
 40
53.476063496357689
 50
267.64225769042969
 51
294.05793762207031
  0
ARC
  8
_1-1_
  6
CONTINUOUS
 62
    7
 10
120.1276551677084
 20
193.76061040346286
 40
24.137140737997523
 50
289.41700744628906
 51
297.09066772460937
  0
ARC
  8
_1-1_
  6
CONTINUOUS
 62
    7
 10
74.052887926101562
 20
324.83929544226146
 40
162.07522418047935
 50
289.49891662597656
 51
290.61585998535156
  0
ARC
  8
_1-1_
  6
CONTINUOUS
 62
    7
 10
133.02729934924346
 20
181.30988392014365
 40
6.8071267411515528
 50
279.50886535644531
 51
297.68336486816406
  0
ARC
  8
_1-1_
  6
CONTINUOUS
 62
    7
 10
128.98282121632536
 20
182.29363042299411
 40
9.7883250262286214
 50
282.80255126953125
 51
301.87579345703125
  0
ARC
  8
_1-1_
  6
CONTINUOUS
 62
    7
 10
114.35176636386549
 20
225.42708049293714
 40
52.876065228436453
 50
288.52542114257812
 51
290.13310241699219
  0
ARC
  8
_1-1_
  6
CONTINUOUS
 62
    7
 10
166.07731683499091
 20
216.95976399430958
 40
48.372338784707559
 50
268.90371704101562
 51
288.15779113769531
  0
ARC
  8
_1-1_
  6
CONTINUOUS
 62
    7
 10
138.83034467362057
 20
153.12573343054271
 40
23.979475176012194
 50
40.177536010742188
 51
116.44371032714844
  0
ARC
  8
_1-1_
  6
CONTINUOUS
 62
    7
 10
139.60683558103187
 20
160.61295316370359
 40
19.990763793120518
 50
58.163726806640632
 51
124.96070861816408
  0
ARC
  8
_1-1_
  6
CONTINUOUS
 62
    7
 10
167.35176801346432
 20
225.42708049293714
 40
53.476063496357689
 50
267.64225769042969
 51
294.05793762207031
  0
ARC
  8
_1-1_
  6
CONTINUOUS
 62
    7
 10
173.12765681730721
 20
193.76061040346286
 40
24.137140737997523
 50
289.41700744628906
 51
297.09066772460937
  0
ARC
  8
_1-1_
  6
CONTINUOUS
 62
    7
 10
127.05288957570036
 20
324.83929544226146
 40
162.07522418047935
 50
289.49891662597656
 51
290.61585998535156
  0
ARC
  8
_1-1_
  6
CONTINUOUS
 62
    7
 10
186.02728862685115
 20
181.30988392014365
 40
6.8071267411515528
 50
279.50886535644531
 51
297.68336486816406
  0
ARC
  8
_1-1_
  6
CONTINUOUS
 62
    7
 10
181.98282286592419
 20
182.29363042299411
 40
9.7883250262286214
 50
282.80255126953125
 51
301.87579345703125
  0
ARC
  8
_1-1_
  6
CONTINUOUS
 62
    7
 10
167.35176801346432
 20
225.42708049293714
 40
52.876065228436453
 50
288.52542114257812
 51
290.13310241699219
  0
ARC
  8
_1-1_
  6
CONTINUOUS
 62
    7
 10
219.07730611259862
 20
216.95976399430958
 40
48.372338784707559
 50
268.90371704101562
 51
288.15779113769531
  0
ARC
  8
_1-1_
  6
CONTINUOUS
 62
    7
 10
191.83034632321937
 20
153.12573343054271
 40
23.979475176012194
 50
40.177536010742188
 51
116.44371032714844
  0
ARC
  8
_1-1_
  6
CONTINUOUS
 62
    7
 10
192.6068372306307
 20
160.61295316370359
 40
19.990763793120518
 50
58.163726806640632
 51
124.96070861816408
  0
ARC
  8
_1-1_
  6
CONTINUOUS
 62
    7
 10
220.35176966306312
 20
225.42708049293714
 40
53.476063496357689
 50
267.64225769042969
 51
294.05793762207031
  0
ARC
  8
_1-1_
  6
CONTINUOUS
 62
    7
 10
226.12765846690604
 20
193.76061040346286
 40
24.137140737997523
 50
289.41700744628906
 51
297.09066772460937
  0
ARC
  8
_1-1_
  6
CONTINUOUS
 62
    7
 10
180.05289122529919
 20
324.83929544226146
 40
162.07522418047935
 50
289.49891662597656
 51
290.61585998535156
  0
ARC
  8
_1-1_
  6
CONTINUOUS
 62
    7
 10
239.02729027644995
 20
181.30988392014365
 40
6.8071267411515528
 50
279.50886535644531
 51
297.68336486816406
  0
ARC
  8
_1-1_
  6
CONTINUOUS
 62
    7
 10
234.98281214353187
 20
182.29363042299411
 40
9.7883250262286214
 50
282.80255126953125
 51
301.87579345703125
  0
ARC
  8
_1-1_
  6
CONTINUOUS
 62
    7
 10
220.35176966306312
 20
225.42708049293714
 40
52.876065228436453
 50
288.52542114257812
 51
290.13310241699219
  0
ARC
  8
_1-1_
  6
CONTINUOUS
 62
    7
 10
272.07730776219745
 20
216.95976399430958
 40
48.372338784707559
 50
268.90371704101562
 51
288.15779113769531
  0
ARC
  8
_1-1_
  6
CONTINUOUS
 62
    7
 10
244.8303479728182
 20
153.12573343054271
 40
23.979475176012194
 50
40.177536010742188
 51
116.44371032714844
  0
ARC
  8
_1-1_
  6
CONTINUOUS
 62
    7
 10
245.60683888022953
 20
160.61295316370359
 40
19.990763793120518
 50
58.163726806640632
 51
124.96070861816408
  0
ARC
  8
_1-1_
  6
CONTINUOUS
 62
    7
 10
273.35177131266198
 20
225.42708049293714
 40
53.476063496357689
 50
267.64225769042969
 51
294.05793762207031
  0
ARC
  8
_1-1_
  6
CONTINUOUS
 62
    7
 10
279.1276601165049
 20
193.76061040346286
 40
24.137140737997523
 50
289.41700744628906
 51
297.09066772460937
  0
ARC
  8
_1-1_
  6
CONTINUOUS
 62
    7
 10
233.05288050290687
 20
324.83929544226146
 40
162.07522418047935
 50
289.49891662597656
 51
290.61585998535156
  0
ARC
  8
_1-1_
  6
CONTINUOUS
 62
    7
 10
292.02729192604875
 20
181.30988392014365
 40
6.8071267411515528
 50
279.50886535644531
 51
297.68336486816406
  0
ARC
  8
_1-1_
  6
CONTINUOUS
 62
    7
 10
287.98281379313073
 20
182.29363042299411
 40
9.7883250262286214
 50
282.80255126953125
 51
301.87579345703125
  0
ARC
  8
_1-1_
  6
CONTINUOUS
 62
    7
 10
273.35177131266198
 20
225.42708049293714
 40
52.876065228436453
 50
288.52542114257812
 51
290.13310241699219
  0
ARC
  8
_1-1_
  6
CONTINUOUS
 62
    7
 10
325.07730941179625
 20
216.95976399430958
 40
48.372338784707559
 50
268.90371704101562
 51
288.15779113769531
  0
ARC
  8
_1-1_
  6
CONTINUOUS
 62
    7
 10
297.83034962241697
 20
153.12573343054271
 40
23.979475176012194
 50
40.177536010742188
 51
116.44371032714844
  0
ARC
  8
_1-1_
  6
CONTINUOUS
 62
    7
 10
298.60684052982833
 20
160.61295316370359
 40
19.990763793120518
 50
58.163726806640632
 51
124.96070861816408
  0
ARC
  8
_1-1_
  6
CONTINUOUS
 62
    7
 10
326.35177296226078
 20
225.42708049293714
 40
53.476063496357689
 50
267.64225769042969
 51
294.05793762207031
  0
ARC
  8
_1-1_
  6
CONTINUOUS
 62
    7
 10
332.1276617661037
 20
193.76061040346286
 40
24.137140737997523
 50
289.41700744628906
 51
297.09066772460937
  0
ARC
  8
_1-1_
  6
CONTINUOUS
 62
    7
 10
286.05288215250573
 20
324.83929544226146
 40
162.07522418047935
 50
289.49891662597656
 51
290.61585998535156
  0
ARC
  8
_1-1_
  6
CONTINUOUS
 62
    7
 10
345.0272935756476
 20
181.30988392014365
 40
6.8071267411515528
 50
279.50886535644531
 51
297.68336486816406
  0
ARC
  8
_1-1_
  6
CONTINUOUS
 62
    7
 10
340.98281544272953
 20
182.29363042299411
 40
9.7883250262286214
 50
282.80255126953125
 51
301.87579345703125
  0
ARC
  8
_1-1_
  6
CONTINUOUS
 62
    7
 10
326.35177296226078
 20
225.42708049293714
 40
52.876065228436453
 50
288.52542114257812
 51
290.13310241699219
  0
ARC
  8
_1-1_
  6
CONTINUOUS
 62
    7
 10
350.83035127201583
 20
153.12573343054271
 40
23.979475176012194
 50
40.177536010742188
 51
116.44371032714844
  0
ARC
  8
_1-1_
  6
CONTINUOUS
 62
    7
 10
351.60684217942719
 20
160.61295316370359
 40
19.990763793120518
 50
58.163726806640632
 51
124.96070861816408
  0
ARC
  8
_1-1_
  6
CONTINUOUS
 62
    7
 10
379.35177461185958
 20
225.42708049293714
 40
53.476063496357689
 50
267.64225769042969
 51
275.6641845703125
  0
ARC
  8
_1-1_
  6
CONTINUOUS
 62
    7
 10
378.07731106139511
 20
216.95976399430958
 40
48.372338784707559
 50
268.90371704101562
 51
277.78511047363281
  0
ARC
  8
_1-1_
  6
CONTINUOUS
 62
    7
 10
114.35176636386549
 20
225.42708049293714
 40
52.876065228436453
 50
292.45927429199219
 51
293.19656372070313
  0
ARC
  8
_1-1_
  6
CONTINUOUS
 62
    7
 10
167.35176801346432
 20
225.42708049293714
 40
52.876065228436453
 50
292.45927429199219
 51
293.19656372070313
  0
ARC
  8
_1-1_
  6
CONTINUOUS
 62
    7
 10
220.35176966306312
 20
225.42708049293714
 40
52.876065228436453
 50
292.45927429199219
 51
293.19656372070313
  0
ARC
  8
_1-1_
  6
CONTINUOUS
 62
    7
 10
273.35177131266198
 20
225.42708049293714
 40
52.876065228436453
 50
292.45927429199219
 51
293.19656372070313
  0
ARC
  8
_1-1_
  6
CONTINUOUS
 62
    7
 10
326.35177296226078
 20
225.42708049293714
 40
52.876065228436453
 50
292.45927429199219
 51
293.19656372070313
  0
TEXT
  8
_1-1_
 62
    7
 10
152.15183251277807
 20
219.46415192716432
 40
3
 41
1
 50
0
  1
265
  0
TEXT
  8
_1-1_
 62
    7
 10
205.1518341623769
 20
219.46415192716432
 40
3
 41
1
 50
0
  1
265
  0
TEXT
  8
_1-1_
 62
    7
 10
258.15183581197573
 20
219.46415192716432
 40
3
 41
1
 50
0
  1
265
  0
TEXT
  8
_1-1_
 62
    7
 10
311.15183746157453
 20
219.46415192716432
 40
3
 41
1
 50
0
  1
265
  0
POINT
  8
_1-1_
 62
    7
 10
128.15183168797867
 20
218.96415027756552
  0
POINT
  8
_1-1_
 62
    7
 10
181.1518333375775
 20
218.96415027756552
  0
POINT
  8
_1-1_
 62
    7
 10
234.1518349871763
 20
218.96415027756552
  0
POINT
  8
_1-1_
 62
    7
 10
287.1518366367751
 20
218.96415027756552
  0
POINT
  8
_1-1_
 62
    7
 10
340.15183828637396
 20
218.96415027756552
  0
LINE
  8
_0-0_
  6
CONTINUOUS
 62
    7
 10
217.30474228005625
 20
119.45098777323119
 11
235.96895489354864
 21
119.45098777323119
  0
LINE
  8
_0-0_
  6
CONTINUOUS
 62
    7
 10
219.85253115780117
 20
112.45098942282999
 11
235.96895489354864
 21
112.45098942282999
  0
LINE
  8
_0-0_
  6
CONTINUOUS
 62
    7
 10
222.40034477952838
 20
105.45099107242882
 11
235.96895489354864
 21
105.45099107242882
  0
LINE
  8
_0-0_
  6
CONTINUOUS
 62
    7
 10
224.9481336572733
 20
98.450992722027621
 11
235.96895489354864
 21
98.450992722027621
  0
LINE
  8
_0-0_
  6
CONTINUOUS
 62
    7
 10
227.49592253501822
 20
91.450988185630877
 11
235.96895489354864
 21
91.450988185630877
  0
LINE
  8
_0-0_
  6
CONTINUOUS
 62
    7
 10
98.849424188033055
 20
113.58063987841786
 11
103.26186389519629
 21
113.58063987841786
  0
LINE
  8
_0-0_
  6
CONTINUOUS
 62
    7
 10
94.749171328625508
 20
100.38295098719981
 11
98.194585278952786
 21
100.38295098719981
  0
TEXT
  8
_1-0_
 62
    7
 10
37.539629806187065
 20
166.52791780620572
 40
3
 41
1
 50
90
  1
45
  0
TEXT
  8
_0-0_
 62
    7
 10
240.36422433901953
 20
117.50764489421937
 40
3
 41
1
 50
0
  1
桟瓦
  0
TEXT
  8
_0-0_
 62
    7
 10
240.36422846301656
 20
103.07269847318895
 40
3
 41
1
 50
0
  1
流し桟
  0
TEXT
  8
_0-0_
 62
    7
 10
240.36422433901953
 20
89.301441330426059
 40
3
 41
1
 50
0
  1
野地板　　ｔ＝12
  0
TEXT
  8
_0-0_
 62
    7
 10
240.36422433901953
 20
82.498770052580852
 40
3
 41
1
 50
0
  1
垂木　　　60ｘ60
  0
TEXT
  8
_0-0_
 62
    7
 10
240.42412488692744
 20
111.4531125791508
 40
3
 41
1
 50
0
  1
瓦桟　　18ｘ24
  0
TEXT
  8
_0-0_
 62
    7
 10
238.9605548093528
 20
97.305268495929397
 40
3
 41
1
 50
0
  1
下葺き材　　ゴムアス系ルーフィング
  0
TEXT
  8
_0-0_
 62
    7
 10
106.28290617771317
 20
111.93328451524218
 40
3
 41
1
 50
0
  1
捨水切
  0
TEXT
  8
_0-0_
 62
    7
 10
100.21065381483486
 20
98.834484949140261
 40
3
 41
1
 50
0
  1
破風板
  0
LINE
  8
_1-0_
  6
CONTINUOUS
 62
    7
 10
199.50019465472533
 20
167.60569259751782
 11
229.89587448623092
 21
84.094277042639419
  0
TEXT
  8
_0-1_
 62
    7
 10
310.75285402229287
 20
13.379928041157285
 40
3
 41
1
 50
0
  1
〒475－0807　半田市八軒町２８番地
  0
ARC
  8
_1-1_
  6
CONTINUOUS
 62
    7
 10
85.830343024021744
 20
153.12573343054271
 40
23.979475176012194
 50
40.177536010742188
 51
84.444408931330187
  0
LINE
  8
_1-1_
  6
CONTINUOUS
 62
    7
 10
88.151831687978671
 20
180.5439245139566
 11
88.151831687978671
 21
176.99257067597813
  0
ARC
  8
_1-1_
  6
CONTINUOUS
 62
    7
 10
86.606833931433044
 20
160.61295316370359
 40
19.990763793120518
 50
58.163726806640632
 51
85.567442353078476
  0
LINE
  8
_1-0_
  6
CONTINUOUS
 62
    7
 10
89.048144499163726
 20
165.07793487955348
 11
383.67047000460082
 21
165.07793487955348
  0
LINE
  8
_1-0_
  6
CONTINUOUS
 62
    7
 10
82.448144994043361
 20
160.87791607412694
 11
94.448147468441604
 21
160.87791607412694
  0
LINE
  8
_1-0_
  6
CONTINUOUS
 62
    7
 10
82.448144994043361
 20
160.87791607412694
 11
383.67044526061858
 21
160.87791607412694
  0
LINE
  8
_1-0_
  6
CONTINUOUS
 62
    7
 10
82.448144994043361
 20
163.27792151780307
 11
383.67044526061858
 21
163.27792151780307
  0
LINE
  8
_1-0_
  6
CONTINUOUS
 62
    7
 10
89.048144499163726
 20
164.47793042563666
 11
383.67044526061858
 21
164.47793042563666
  0
LINE
  8
_1-0_
  6
CONTINUOUS
 62
    7
 10
89.048144499163726
 20
165.07793487955348
 11
89.048144499163726
 21
164.47793042563666
  0
LINE
  8
_1-0_
  6
CONTINUOUS
 62
    2
 10
83.359131817047995
 20
164.30004593714426
 11
88.618446689171122
 21
164.30004593714426
  0
LINE
  8
_1-0_
  6
CONTINUOUS
 62
    2
 10
88.618446689171122
 20
164.30004593714426
 11
88.618446689171122
 21
166.55402476949223
  0
LINE
  8
_1-0_
  6
CONTINUOUS
 62
    7
 10
89.048144499163726
 20
168.07793240515525
 11
89.048144499163726
 21
165.07793487955348
  0
LINE
  8
_1-0_
  6
CONTINUOUS
 62
    2
 10
88.618446689171122
 20
166.55402476949223
 11
88.618446689171122
 21
167.9238639995915
  0
LINE
  8
_1-0_
  6
CONTINUOUS
 62
    2
 10
88.618446689171122
 20
167.9238639995915
 11
87.562398270146645
 21
167.9238639995915
  0
LINE
  8
_1-0_
  6
CONTINUOUS
 62
    7
 10
89.048144499163726
 20
164.47793042563666
 11
89.048144499163726
 21
165.07793487955348
  0
LINE
  8
_1-0_
  6
CONTINUOUS
 62
    7
 10
89.048144499163726
 20
165.07793487955348
 11
93.84814301452478
 21
165.07793487955348
  0
LINE
  8
_1-0_
  6
CONTINUOUS
 62
    7
 10
93.84814301452478
 20
165.07793487955348
 11
93.84814301452478
 21
164.47793042563666
  0
LINE
  8
_1-0_
  6
CONTINUOUS
 62
    7
 10
93.84814301452478
 20
164.47793042563666
 11
89.048144499163726
 21
164.47793042563666
  0
LINE
  8
_1-0_
  6
CONTINUOUS
 62
    7
 10
89.048144499163726
 20
165.07793487955348
 11
93.84814301452478
 21
164.47793042563666
  0
LINE
  8
_1-0_
  6
DASHED1
 62
    3
 10
82.752681555751536
 20
163.87792597171986
 11
383.67044526061858
 21
163.87792597171986
  0
LINE
  8
_1-0_
  6
CONTINUOUS
 62
    2
 10
83.359131817047995
 20
164.30004593714426
 11
82.999911054537478
 21
164.30004593714426
  0
LINE
  8
_1-0_
  6
CONTINUOUS
 62
    2
 10
82.999911054537478
 20
164.30004593714426
 11
82.999911054537478
 21
173.06018272187822
  0
LINE
  8
_1-0_
  6
CONTINUOUS
 62
    2
 10
82.999911054537478
 20
173.06018272187822
 11
83.812237434261903
 21
171.75340353057754
  0
LINE
  8
_1-0_
  6
DASHED1
 62
    3
 10
74.44814334444456
 20
172.87793092051635
 11
82.752681555751536
 21
172.87793092051635
  0
LINE
  8
_1-0_
  6
DASHED1
 62
    3
 10
82.752681555751536
 20
172.87793092051635
 11
82.752681555751536
 21
163.87792597171986
  0
LINE
  8
_1-0_
  6
CONTINUOUS
 62
    7
 10
82.448144994043361
 20
160.87791607412694
 11
74.448137158448986
 21
160.87791607412694
  0
LINE
  8
_1-0_
  6
CONTINUOUS
 62
    7
 10
82.448144994043361
 20
163.27792151780307
 11
74.448137158448986
 21
163.27792151780307
  0
LINE
  8
_1-0_
  6
CONTINUOUS
 62
    7
 10
74.448137158448986
 20
172.27792646659952
 11
74.448137158448986
 21
160.87791607412694
  0
LINE
  8
_1-0_
  6
CONTINUOUS
 62
    7
 10
82.448144994043361
 20
172.27792646659952
 11
74.448137158448986
 21
172.27792646659952
  0
LINE
  8
_1-0_
  6
CONTINUOUS
 62
    7
 10
82.448144994043361
 20
172.27792646659952
 11
82.448144994043361
 21
163.27792151780307
  0
LINE
  8
_1-0_
  6
CONTINUOUS
 62
    7
 10
86.43123330696568
 20
148.87791359972871
 11
383.67044526061858
 21
148.87791359972871
  0
LINE
  8
_1-0_
  6
CONTINUOUS
 62
    7
 10
86.43123330696568
 20
148.87791359972871
 11
86.43123330696568
 21
147.67791706388624
  0
LINE
  8
_1-0_
  6
CONTINUOUS
 62
    7
 10
86.43123330696568
 20
147.67791706388624
 11
383.67044526061858
 21
147.67791706388624
  0
LINE
  8
_1-0_
  6
CONTINUOUS
 62
    7
 10
80.448138395648101
 20
143.67791623908684
 11
88.44814004524693
 21
143.67791623908684
  0
LINE
  8
_1-0_
  6
CONTINUOUS
 62
    7
 10
88.44814004524693
 20
147.67791706388624
 11
88.44814004524693
 21
143.67791623908684
  0
LINE
  8
_1-0_
  6
CONTINUOUS
 62
    7
 10
80.448138395648101
 20
160.87791607412694
 11
80.448138395648101
 21
143.67791623908684
  0
LINE
  8
_1-0_
  6
CONTINUOUS
 62
    7
 10
88.44814004524693
 20
160.87791607412694
 11
88.44814004524693
 21
148.87791359972871
  0
LINE
  8
_1-0_
  6
CONTINUOUS
 62
    7
 10
94.448147468441604
 20
148.87791359972871
 11
86.43123330696568
 21
148.87791359972871
  0
LINE
  8
_1-0_
  6
CONTINUOUS
 62
    7
 10
92.448134684050771
 20
163.27792151780307
 11
92.448134684050771
 21
160.87791607412694
  0
LINE
  8
_1-0_
  6
CONTINUOUS
 62
    7
 10
74.448137158448986
 20
172.27792646659952
 11
82.448144994043361
 21
163.27792151780307
  0
LINE
  8
_1-0_
  6
CONTINUOUS
 62
    7
 10
86.983506619096175
 20
143.67791623908684
 11
88.44814004524693
 21
145.1425496652376
  0
LINE
  8
_1-0_
  6
CONTINUOUS
 62
    7
 10
84.155071494518467
 20
143.67791623908684
 11
88.155072319317867
 21
147.67791706388624
  0
LINE
  8
_1-0_
  6
CONTINUOUS
 62
    7
 10
81.32665492792745
 20
143.67791623908684
 11
86.43123330696568
 21
148.78250080412062
  0
LINE
  8
_1-0_
  6
CONTINUOUS
 62
    7
 10
86.526646102573778
 20
148.87791359972871
 11
88.44814004524693
 21
150.79940754240187
  0
LINE
  8
_1-0_
  6
CONTINUOUS
 62
    7
 10
80.448138395648101
 20
145.62782864538963
 11
88.44814004524693
 21
153.62783029498843
  0
LINE
  8
_1-0_
  6
CONTINUOUS
 62
    7
 10
80.448138395648101
 20
148.45625139797619
 11
88.44814004524693
 21
156.45625304757502
  0
LINE
  8
_1-0_
  6
CONTINUOUS
 62
    7
 10
80.448138395648101
 20
151.2846865225539
 11
88.44814004524693
 21
159.28468817215273
  0
LINE
  8
_1-0_
  6
CONTINUOUS
 62
    7
 10
80.448138395648101
 20
154.11310927514046
 11
87.212951380630159
 21
160.87791607412694
  0
LINE
  8
_1-0_
  6
CONTINUOUS
 62
    7
 10
80.448138395648101
 20
156.94154439971817
 11
84.38451625605245
 21
160.87791607412694
  0
LINE
  8
_1-0_
  6
CONTINUOUS
 62
    7
 10
80.448138395648101
 20
159.76996715230473
 11
81.556087317470286
 21
160.87791607412694
  0
LINE
  8
_1-0_
  6
CONTINUOUS
 62
    7
 10
74.448137158448986
 20
161.96442433531783
 11
75.534651605635446
 21
160.87791607412694
  0
LINE
  8
_1-0_
  6
CONTINUOUS
 62
    7
 10
75.963075100541488
 20
163.27792151780307
 11
78.363080544217581
 21
160.87791607412694
  0
LINE
  8
_1-0_
  6
CONTINUOUS
 62
    7
 10
78.791491667132476
 20
163.27792151780307
 11
81.191497110808569
 21
160.87791607412694
  0
LINE
  8
_1-0_
  6
CONTINUOUS
 62
    7
 10
81.619902047727891
 20
163.27792151780307
 11
84.019907491404012
 21
160.87791607412694
  0
LINE
  8
_1-0_
  6
CONTINUOUS
 62
    7
 10
84.448330986310054
 20
163.27792151780307
 11
86.848336429986119
 21
160.87791607412694
  0
LINE
  8
_1-0_
  6
CONTINUOUS
 62
    7
 10
87.276747552901071
 20
163.27792151780307
 11
89.676752996577164
 21
160.87791607412694
  0
LINE
  8
_1-0_
  6
CONTINUOUS
 62
    7
 10
90.105164119492059
 20
163.27792151780307
 11
92.448134684050771
 21
160.93495095324437
  0
LINE
  8
_1-0_
  6
CONTINUOUS
 62
    3
 10
89.048144499163726
 20
168.07793240515525
 11
254.24811002254847
 21
168.07793240515525
  0
LINE
  8
_0-0_
  6
CONTINUOUS
 62
    7
 10
84.616704442726672
 20
164.32126901358629
 11
85.51363475572208
 21
165.73073093400762
  0
LINE
  8
_0-0_
  6
CONTINUOUS
 62
    7
 10
85.51363475572208
 20
165.73073093400762
 11
98.849424188033055
 21
113.58063987841786
  0
LINE
  8
_0-0_
  6
CONTINUOUS
 62
    7
 10
84.744837344583146
 20
144.46066922583097
 11
94.749171328625508
 21
100.38295098719981
  0
LINE
  8
_1-1_
  6
CONTINUOUS
 62
    7
 10
100.1325275459657
 20
182.81522871736041
 11
100.20661102886265
 21
182.70912652141445
  0
LINE
  8
_1-1_
  6
CONTINUOUS
 62
    7
 10
99.823722647317055
 20
180.7946351257219
 11
100.20661102886265
 21
182.70912652141445
  0
LINE
  8
_1-1_
  6
CONTINUOUS
 62
    7
 10
70.164744210872783
 20
153.03485630393135
 11
70.429504821092394
 21
152.83581571060364
  0
LINE
  8
_1-1_
  6
CONTINUOUS
 62
    7
 10
72.223690975019764
 20
153.19460345342458
 11
70.429504821092394
 21
152.83581571060364
  0
LINE
  8
ADD_LINE
  6
DOT
 62
    4
 10
68.223677778229217
 20
184.79464832251244
 11
93.237715864166717
 21
159.78065972453945
  0
LINE
  8
_1-1_
  6
CONTINUOUS
 62
    7
 10
72.223690975019764
 20
153.19460345342458
 11
73.310360072095307
 21
154.50208784821979
  0
LINE
  8
_1-1_
  6
CONTINUOUS
 62
    7
 10
84.750919665502209
 20
168.26743736521723
 11
84.750925851497783
 21
168.26744973720838
  0
LINE
  8
_1-1_
  6
CONTINUOUS
 62
    7
 10
98.497946263633565
 20
179.69277322353651
 11
99.823722647317055
 21
180.7946351257219
  0
ARC
  8
_1-1_
  6
CONTINUOUS
 62
    7
 10
80.22371736860083
 20
172.7946087321408
 40
8.5999999175200603
 50
90
 51
180.45155334472656
  0
ARC
  8
_1-1_
  6
CONTINUOUS
 62
    7
 10
80.22371736860083
 20
172.7946087321408
 40
12.000000154649889
 50
90
 51
180
  0
ARC
  8
_1-1_
  6
CONTINUOUS
 62
    7
 10
82.128311171387992
 20
102.84089647496175
 40
81.97591626966323
 50
77.31280517578125
 51
91.331314086914062
  0
ARC
  8
_1-1_
  6
CONTINUOUS
 62
    7
 10
138.81296396382888
 20
169.75357331195499
 40
70.654734018686653
 50
177.53314208984378
 51
193.68743896484378
  0
ARC
  8
_1-1_
  6
CONTINUOUS
 62
    7
 10
138.81296396382888
 20
169.75357331195499
 40
67.25473146180849
 50
177.4661865234375
 51
193.10708618164065
  0
ARC
  8
_1-1_
  6
CONTINUOUS
 62
    7
 10
82.128311171387992
 20
102.84089647496175
 40
78.575913712785052
 50
77.975555419921889
 51
91.331314086914077
  0
LINE
  8
_0-0_
  6
CONTINUOUS
 62
    7
 10
72.592757696053354
 20
180.45396124569288
 11
59.664305117018415
 21
208.40737222739006
  0
LINE
  8
_0-0_
  6
CONTINUOUS
 62
    7
 10
59.664305117018415
 20
208.40737222739006
 11
56.868964018848686
 21
208.40737222739006
  0
TEXT
  8
_0-0_
 62
    7
 10
49.18177599888196
 20
207.35911931557641
 40
3
 41
1
 50
0
  1
袖瓦
  0
LINE
  8
_1-1_
  6
CONTINUOUS
 62
    7
 10
96.151831687978671
 20
178.17779460505673
 11
96.151831687978671
 21
174.77018078954896
  0
LINE
  8
_1-0_
  6
CONTINUOUS
 62
    7
 10
80.448138395648101
 20
126.76785401621946
 11
74.448137158448986
 21
126.76785401621946
  0
LINE
  8
_1-0_
  6
CONTINUOUS
 62
    7
 10
80.448138395648101
 20
137.9196698945978
 11
80.448138395648101
 21
126.76785401621946
  0
LINE
  8
_1-0_
  6
CONTINUOUS
 62
    7
 10
74.448137158448986
 20
137.9196698945978
 11
74.448137158448986
 21
126.76785401621946
  0
LINE
  8
_1-0_
  6
CONTINUOUS
 62
    7
 10
74.448137158448986
 20
126.76785401621946
 11
73.448140045246902
 21
126.76785401621946
  0
LINE
  8
_1-0_
  6
CONTINUOUS
 62
    7
 10
73.448140045246902
 20
137.9196698945978
 11
73.448140045246902
 21
126.76785401621946
  0
POINT
  8
_1-0_
 62
    7
 10
80.448138395648101
 20
126.76785401621946
  0
POINT
  8
_1-0_
 62
    7
 10
74.448137158448986
 20
126.76785401621946
  0
POINT
  8
_1-0_
 62
    7
 10
73.448140045246902
 20
126.76785401621946
  0
TEXT
  8
_1-0_
 62
    7
 10
76.198137777048572
 20
127.26785566581826
 40
3
 41
1
 50
0
  1
30
  0
TEXT
  8
_1-0_
 62
    7
 10
71.347381106070912
 20
127.16386908035587
 40
3
 41
1
 50
0
  1
5
  0
LINE
  8
_1-1_
  6
CONTINUOUS
 62
    7
 10
128.15183168797867
 20
218.96415027756552
 11
88.151831687978671
 21
218.96415027756552
  0
POINT
  8
_1-1_
 62
    7
 10
128.15183168797867
 20
218.96415027756552
  0
POINT
  8
_1-1_
 62
    7
 10
88.151831687978671
 20
218.96415027756552
  0
LINE
  8
_1-1_
  6
CONTINUOUS
 62
    7
 10
128.15183168797867
 20
218.96415027756552
 11
128.15183168797867
 21
191.01073742257182
  0
LINE
  8
_1-1_
  6
CONTINUOUS
 62
    7
 10
88.151831687978671
 20
218.96415027756552
 11
88.151831687978671
 21
191.01073742257182
  0
TEXT
  8
_1-1_
 62
    7
 10
105.65183168797867
 20
219.46415027756552
 40
3
 41
1
 50
0
  1
200
  0
ENDSEC
  0
EOF
