  0
SECTION
  2
HEADER
  9
$ACADVER
  1
AC1009
  9
$INSBASE
 10
0
 20
0
 30
0
  9
$EXTMIN
 10
0
 20
0
  9
$EXTMAX
 10
420
 20
297
  9
$LIMMIN
 10
0
 20
0
  9
$LIMMAX
 10
420
 20
297
  9
$LTSCALE
 40
1
  0
ENDSEC
  0
SECTION
  2
TABLES
  0
TABLE
  2
LTYPE
 70
     9
  0
LTYPE
  2
CONTINUOUS
 70
    64
  3
実線
 72
    65
 73
     0
 40
0.0
  0
LTYPE
  2
DASHED1
 70
    64
  3
--  --  --  --  --  --  --  --  
 72
    65
 73
     2
 40
2.5
 49
1.25
 49
-1.25
  0
LTYPE
  2
DASHED2
 70
    64
  3
----    ----    ----    ----    
 72
    65
 73
     2
 40
5.0
 49
2.5
 49
-2.5
  0
LTYPE
  2
DASHED3
 70
    64
  3
------  ------  ------  ------  
 72
    65
 73
     2
 40
5.0
 49
3.75
 49
-1.25
  0
LTYPE
  2
CENTER1
 70
    64
  3
----- - ----- - ----- - ----- - 
 72
    65
 73
     4
 40
10.0
 49
6.25
 49
-1.25
 49
1.25
 49
-1.25
  0
LTYPE
  2
CENTER2
 70
    64
  3
----------  --  ----------  --  
 72
    65
 73
     4
 40
20.0
 49
12.5
 49
-2.5
 49
2.5
 49
-2.5
  0
LTYPE
  2
PHANTOM1
 70
    64
  3
--- - - --- - - --- - - --- - - 
 72
    65
 73
     6
 40
10.0
 49
3.25
 49
-1.25
 49
1.25
 49
-1.25
 49
1.25
 49
-1.25
  0
LTYPE
  2
PHANTOM2
 70
    64
  3
--------  -  -  --------  -  -  
 72
    65
 73
     6
 40
20.0
 49
10.0
 49
-2.5
 49
1.25
 49
-2.5
 49
1.25
 49
-2.5
  0
LTYPE
  2
DOT
 70
    64
  3
-   -   -   -   -   -   -   -   
 72
    65
 73
     2
 40
2.5
 49
0.625
 49
-1.875
  0
LTYPE
  2
DUMMY
 70
    64
  3
ダミー
 72
    65
 73
     0
 40
0.0
  0
LTYPE
  2
RAND1
 70
    64
  3
ランダム線1
 72
    65
 73
     4
 40
10.0
 49
1.0
 49
-2.0
 49
3.0
 49
-4.0
  0
LTYPE
  2
RAND2
 70
    64
  3
ランダム線2
 72
    65
 73
     4
 40
14.0
 49
2.0
 49
-3.0
 49
4.0
 49
-5.0
  0
LTYPE
  2
RAND3
 70
    64
  3
ランダム線3
 72
    65
 73
     4
 40
18.0
 49
3.0
 49
-4.0
 49
5.0
 49
-6.0
  0
LTYPE
  2
RAND4
 70
    64
  3
ランダム線4
 72
    65
 73
     4
 40
22.0
 49
4.0
 49
-5.0
 49
6.0
 49
-7.0
  0
LTYPE
  2
RAND5
 70
    64
  3
ランダム線5
 72
    65
 73
     4
 40
26.0
 49
5.0
 49
-6.0
 49
7.0
 49
-8.0
  0
LTYPE
  2
LONG1
 70
    64
  3
----------  --  ----------  --  
 72
    65
 73
     4
 40
40.0
 49
32.5
 49
-2.5
 49
2.5
 49
-2.5
  0
LTYPE
  2
LONG2
 70
    64
  3
--------  -  -  --------  -  -  
 72
    65
 73
     6
 40
40.0
 49
30.0
 49
-2.5
 49
1.25
 49
-2.5
 49
1.25
 49
-2.5
  0
LTYPE
  2
LONG3
 70
    64
  3
+++++++++++++++..+++++++++++++++
 72
    65
 73
     2
 40
40.0
 49
37.5
 49
-2.5
  0
LTYPE
  2
LONG4
 70
    64
  3
+++++++++++++++..+++++++++++++++
 72
    65
 73
     2
 40
80.0
 49
75.0
 49
-5.0
  0
LTYPE
  2
LONG5
 70
    64
  3
----------  --  ----------  --  
 72
    65
 73
     4
 40
60.0
 49
37.5
 49
-7.5
 49
7.5
 49
-7.5
  0
LTYPE
  2
dashed
 70
   64
  3
-------   -------------   ------
 72
   65
 73
    2
 40
7.5
 49
6
 49
-1.5
  0
LTYPE
  2
dashed_spaced
 70
   64
  3
----        --------        ----
 72
   65
 73
    2
 40
12
 49
6
 49
-6
  0
LTYPE
  2
long_dashed_dotted
 70
   64
  3
------------- --- --------------
 72
   65
 73
    4
 40
15.25
 49
12
 49
-1.5
 49
0.25
 49
-1.5
  0
LTYPE
  2
long_dashed_double-dotted
 70
   64
  3
----------- --- --- ------------
 72
   65
 73
    6
 40
17
 49
12
 49
-1.5
 49
0.25
 49
-1.5
 49
0.25
 49
-1.5
  0
LTYPE
  2
long_dashed_triplicate-dotted
 70
   64
  3
--------- --- --- --- ----------
 72
   65
 73
    8
 40
18.75
 49
12
 49
-1.5
 49
0.25
 49
-1.5
 49
0.25
 49
-1.5
 49
0.25
 49
-1.5
  0
LTYPE
  2
dotted
 70
   64
  3
   -       -       -       -    
 72
   65
 73
    2
 40
1.75
 49
0.25
 49
-1.5
  0
LTYPE
  2
chain
 70
   64
  3
-------------- -- --------------
 72
   65
 73
    4
 40
18.5
 49
12
 49
-1.5
 49
3.5
 49
-1.5
  0
LTYPE
  2
chain_double_dash
 70
   64
  3
------------ -- -- -------------
 72
   65
 73
    6
 40
23.5
 49
12
 49
-1.5
 49
3.5
 49
-1.5
 49
3.5
 49
-1.5
  0
LTYPE
  2
dashed_dotted
 70
   64
  3
-----------     -     ----------
 72
   65
 73
    4
 40
9.25
 49
6
 49
-1.5
 49
0.25
 49
-1.5
  0
LTYPE
  2
double-dashed_dotted
 70
   64
  3
------   -----------   -   -----
 72
   65
 73
    6
 40
16.75
 49
6
 49
-1.5
 49
6
 49
-1.5
 49
0.25
 49
-1.5
  0
LTYPE
  2
dashed_double-dotted
 70
   64
  3
---------    -    -    ---------
 72
   65
 73
    6
 40
11
 49
6
 49
-1.5
 49
0.25
 49
-1.5
 49
0.25
 49
-1.5
  0
LTYPE
  2
double-dashed_double-dotted
 70
   64
  3
-----   ---------   -   -   ----
 72
   65
 73
    8
 40
18.5
 49
6
 49
-1.5
 49
6
 49
-1.5
 49
0.25
 49
-1.5
 49
0.25
 49
-1.5
  0
LTYPE
  2
dashed_triplicate-dotted
 70
   64
  3
-------    -    -    -    ------
 72
   65
 73
    8
 40
12.75
 49
6
 49
-1.5
 49
0.25
 49
-1.5
 49
0.25
 49
-1.5
 49
0.25
 49
-1.5
  0
LTYPE
  2
double-dashed_triplicate-dotted
 70
   64
  3
-----  ---------  -  -  -  -----
 72
   65
 73
   10
 40
20.25
 49
6
 49
-1.5
 49
6
 49
-1.5
 49
0.25
 49
-1.5
 49
0.25
 49
-1.5
 49
0.25
 49
-1.5
  0
LTYPE
  2
undefined
 70
   64
  3
--------------------------------
 72
   65
 73
    0
 40
0
  0
ENDTAB
  0
TABLE
  2
STYLE
  5
3
100
AcDbSymbolTable
 70
     1
  0
STYLE
  5
10
100
AcDbSymbolTableRecord
100
AcDbTextStyleTableRecord
  2
STANDARD
 70
     0
 40
0.0
 41
1.0
 50
0.0
 71
     0
 42
0.2
  3
txt
  4
bigfont.shx
  0
STYLE
  5
26
100
AcDbSymbolTableRecord
100
AcDbTextStyleTableRecord
  2
TATEGAKI
 70
    68
 40
0.0
 41
1.0
 50
0.0
 71
     0
 42
1.0
  3
txt
  4
bigfont.shx
  0
ENDTAB
  0
TABLE
  2
LAYER
 70
    6
  0
LAYER
  2
_0-1_
 70
   64
 62
    7
  6
CONTINUOUS
  0
LAYER
  2
_1-0_
 70
   64
 62
    7
  6
CONTINUOUS
  0
LAYER
  2
_1-1_
 70
   64
 62
    7
  6
CONTINUOUS
  0
LAYER
  2
_1-2_
 70
   64
 62
    7
  6
CONTINUOUS
  0
LAYER
  2
_1-3_
 70
   64
 62
    7
  6
CONTINUOUS
  0
LAYER
  2
ADD_LINE
 70
   64
 62
    7
  6
CONTINUOUS
  0
ENDTAB
  0
ENDSEC
  0
SECTION
  2
BLOCKS
  0
ENDSEC
  0
SECTION
  2
ENTITIES
  0
LINE
  8
_1-0_
  6
CONTINUOUS
 62
    7
 10
277.27120102873596
 20
125.31518161959468
 11
277.27120102873596
 21
249.35290464535484
  0
ARC
  8
_1-1_
  6
CONTINUOUS
 62
    7
 10
219.9640387377153
 20
142.46047277636509
 40
20.129313082308386
 50
109.03543508346425
 51
121.8156192143496
  0
LINE
  8
_0-1_
  6
CONTINUOUS
 62
    7
 10
213.43723875492589
 20
25.680406435124397
 11
213.43723875492589
 21
11.080383165471062
  0
LINE
  8
ADD_LINE
  6
DOT
 62
    7
 10
125.83724028080478
 20
22.837598665349006
 11
205.20020872562901
 21
22.837598665349006
  0
LINE
  8
_0-1_
  6
CONTINUOUS
 62
    7
 10
7.5772534033633576
 20
25.680406435124397
 11
412.72727781742583
 21
25.680406435124397
  0
LINE
  8
_0-1_
  6
CONTINUOUS
 62
    5
 10
7.5772534033633576
 20
293.59038720905016
 11
412.72727781742583
 21
293.59038720905016
  0
LINE
  8
_0-1_
  6
CONTINUOUS
 62
    5
 10
7.5772534033633576
 20
8.8904055195970386
 11
412.72727781742583
 21
8.8904055195970386
  0
LINE
  8
_0-1_
  6
CONTINUOUS
 62
    7
 10
412.72727781742583
 20
25.680406435124397
 11
412.72727781742583
 21
11.080383165471062
  0
LINE
  8
_0-1_
  6
CONTINUOUS
 62
    7
 10
7.5772534033633576
 20
14.834709509007439
 11
7.5772534033633576
 21
11.080383165471062
  0
LINE
  8
_0-1_
  6
CONTINUOUS
 62
    7
 10
7.5772534033633576
 20
25.680406435124397
 11
7.5772534033633576
 21
19.857313974492058
  0
LINE
  8
_0-1_
  6
CONTINUOUS
 62
    7
 10
7.5772534033633576
 20
19.857313974492058
 11
7.5772534033633576
 21
19.500179155461296
  0
LINE
  8
_0-1_
  6
CONTINUOUS
 62
    7
 10
7.5772534033633576
 20
19.857313974492058
 11
7.5772534033633576
 21
14.834709509007439
  0
LINE
  8
_0-1_
  6
CONTINUOUS
 62
    7
 10
7.5772534033633576
 20
11.080383165471062
 11
412.72727781742583
 21
11.080383165471062
  0
LINE
  8
_0-1_
  6
CONTINUOUS
 62
    7
 10
407.77128416508208
 20
21.534768922917365
 11
399.9884777685977
 21
13.751917703740105
  0
LINE
  8
_0-1_
  6
CONTINUOUS
 62
    7
 10
412.72727781742583
 20
11.080383165471062
 11
412.72727781742583
 21
25.680406435124397
  0
LINE
  8
_0-1_
  6
CONTINUOUS
 62
    7
 10
290.08723265141026
 20
25.680406435124397
 11
290.08723265141026
 21
19.020202501408562
  0
LINE
  8
_0-1_
  6
CONTINUOUS
 62
    7
 10
290.08723265141026
 20
19.020202501408562
 11
290.08723265141026
 21
11.080383165471062
  0
LINE
  8
_0-1_
  6
CONTINUOUS
 62
    7
 10
213.43723875492589
 20
18.380405290715203
 11
288.84425169437901
 21
18.380405290715203
  0
LINE
  8
_0-1_
  6
CONTINUOUS
 62
    7
 10
306.87721067875401
 20
25.680406435124397
 11
306.87721067875401
 21
19.857313974492058
  0
LINE
  8
_0-1_
  6
CONTINUOUS
 62
    7
 10
306.87721067875401
 20
19.857313974492058
 11
306.87721067875401
 21
11.080383165471062
  0
LINE
  8
_0-1_
  6
CONTINUOUS
 62
    7
 10
213.43723875492589
 20
18.380405290715203
 11
290.08723265141026
 21
18.380405290715203
  0
LINE
  8
_0-1_
  6
CONTINUOUS
 62
    7
 10
394.4772472998477
 20
25.680406435124397
 11
394.4772472998477
 21
11.080383165471062
  0
LINE
  8
ADD_LINE
  6
DOT
 62
    7
 10
18.655595841107498
 20
22.837598665349006
 11
48.897417130169998
 21
22.837598665349006
  0
LINE
  8
ADD_LINE
  6
DOT
 62
    7
 10
48.897417130169998
 20
22.837598665349006
 11
127.16582304447665
 21
22.837598665349006
  0
LINE
  8
ADD_LINE
  6
DOT
 62
    7
 10
205.20020872562901
 20
22.837598665349006
 11
328.84751707523839
 21
22.837598665349006
  0
LINE
  8
_0-1_
  6
CONTINUOUS
 62
    7
 10
263.07722288578526
 20
18.380405290715203
 11
263.07722288578526
 21
11.080383165471062
  0
LINE
  8
ADD_LINE
  6
DOT
 62
    7
 10
214.60806089848057
 20
15.584670408360466
 11
273.05274778812901
 21
15.584670408360466
  0
LINE
  8
ADD_LINE
  6
DOT
 62
    7
 10
328.84751707523839
 20
22.837598665349006
 11
403.85075193851958
 21
22.837598665349006
  0
TEXT
  8
_0-1_
 62
    7
 10
9.3539288660861359
 20
22.597051485173225
 40
2
 41
1
 50
0
  1
特記
  0
TEXT
  8
_0-1_
 62
    7
 10
213.43606382816807
 20
22.583328111760139
 40
2
 41
1
 50
0
  1
図面名
  0
TEXT
  8
_0-1_
 62
    7
 10
213.76429563969151
 20
15.247170789830193
 40
2
 41
1
 50
0
  1
SCALE
  0
TEXT
  8
_0-1_
 62
    7
 10
263.93104368656651
 20
15.16264854251574
 40
2
 41
1
 50
0
  1
DATE
  0
TEXT
  8
_0-1_
 62
    7
 10
291.17832762211339
 20
22.653281076542854
 40
2
 41
1
 50
0
  1
担当
  0
TEXT
  8
_0-1_
 62
    7
 10
395.47913938969145
 20
22.372781618229865
 40
2.5
 41
1
 50
0
  1
NO
  0
LINE
  8
_0-1_
  6
CONTINUOUS
 62
    4
 10
18.11883360355867
 20
22.111630304448127
 11
213.43723875492589
 21
22.111630304448127
  0
LINE
  8
_0-1_
  6
CONTINUOUS
 62
    4
 10
18.11883360355867
 20
18.461629732243523
 11
213.43723875492589
 21
18.461629732243523
  0
LINE
  8
_0-1_
  6
CONTINUOUS
 62
    4
 10
18.11883360355867
 20
14.811652048222527
 11
213.43723875492589
 21
14.811652048222527
  0
LINE
  8
ADD_LINE
  6
DOT
 62
    4
 10
311.249670296575
 20
19.812035451072745
 11
345.00828120240271
 21
19.812035451072745
  0
TEXT
  8
_0-1_
 62
    7
 10
310.64143599415735
 20
19.578707430822249
 40
3
 41
1
 50
0
  1
株式会社
  0
TEXT
  8
_0-1_
 62
    3
 10
328.38745303781229
 20
19.490272438212457
 40
5
 41
1
 50
0
  1
神　清
  0
TEXT
  8
_0-1_
 62
    7
 10
223.82205475621606
 20
12.751538617002723
 40
3
 41
1
 50
0
  1
1/5
  0
TEXT
  8
_1-1_
 62
    7
 10
398.33610648918471
 20
17.817803660565716
 40
3
 41
1
 50
0
  1
16
  0
TEXT
  8
_0-1_
 62
    7
 10
223.13368456897959
 20
20.065471856390189
 40
3
 41
1
 50
0
  1
Ｎｏｖｕｍ　壁際　3
  0
LINE
  8
_1-0_
  6
CONTINUOUS
 62
    7
 10
265.28905133754085
 20
162.73592664440463
 11
264.05796398798424
 21
165.47169555540549
  0
LINE
  8
_1-0_
  6
CONTINUOUS
 62
    7
 10
265.28905133754085
 20
162.73592664440463
 11
268.43519919438205
 21
167.44144026349247
  0
LINE
  8
ADD_LINE
  6
DOT
 62
    4
 10
114.12313963726635
 20
104.45075884721292
 11
115.45342561171736
 21
104.88695813854527
  0
LINE
  8
ADD_LINE
  6
DOT
 62
    7
 10
277.27120102873596
 20
131.14321836605794
 11
277.27120102873596
 21
121.54408737471502
  0
LINE
  8
_1-0_
  6
CONTINUOUS
 62
    7
 10
277.27120102873596
 20
125.31518161959468
 11
277.27120102873596
 21
88.001553294003457
  0
LINE
  8
_1-0_
  6
CONTINUOUS
 62
    7
 10
91.977448719297598
 20
80.140012783155697
 11
277.27120102873596
 21
163.52221616879231
  0
LINE
  8
_1-0_
  6
CONTINUOUS
 62
    7
 10
91.977448719297598
 20
82.771819852676373
 11
277.27120102873596
 21
166.15401086632187
  0
LINE
  8
_1-0_
  6
CONTINUOUS
 62
    7
 10
270.18202536625711
 20
164.93774516214111
 11
265.28905133754085
 21
162.73592664440463
  0
LINE
  8
_1-0_
  6
CONTINUOUS
 62
    7
 10
91.977448719297598
 20
84.087723387436739
 11
270.42827747774356
 21
164.39058148234804
  0
LINE
  8
_1-0_
  6
CONTINUOUS
 62
    7
 10
91.977448719297598
 20
84.745672061819121
 11
270.18202536625711
 21
164.93774516214111
  0
LINE
  8
_1-0_
  6
CONTINUOUS
 62
    7
 10
270.18202536625711
 20
164.93774516214111
 11
270.42827747774356
 21
164.39058148234804
  0
LINE
  8
_1-0_
  6
CONTINUOUS
 62
    7
 10
265.27121092632882
 20
123.06558247210735
 11
277.27120102873596
 21
123.06558247210735
  0
LINE
  8
_1-0_
  6
CONTINUOUS
 62
    7
 10
269.9431964494496
 20
147.0655874209038
 11
277.27120102873596
 21
147.0655874209038
  0
LINE
  8
_1-0_
  6
CONTINUOUS
 62
    7
 10
265.27121092632882
 20
144.9631902239021
 11
265.27121092632882
 21
123.06558247210735
  0
LINE
  8
_1-0_
  6
CONTINUOUS
 62
    7
 10
277.27120102873596
 20
147.0655874209038
 11
265.27121092632882
 21
123.06558247210735
  0
LINE
  8
_1-0_
  6
CONTINUOUS
 62
    7
 10
266.11215990753664
 20
145.38366471450598
 11
277.27120102873596
 21
123.06558247210735
  0
LINE
  8
_1-0_
  6
CONTINUOUS
 62
    7
 10
341.25325009440314
 20
166.57152845104525
 11
341.25325009440314
 21
226.57151607905416
  0
LINE
  8
_1-0_
  6
CONTINUOUS
 62
    7
 10
289.75580202377398
 20
166.57152845104525
 11
341.25325009440314
 21
166.57152845104525
  0
LINE
  8
_1-0_
  6
CONTINUOUS
 62
    7
 10
289.75580202377398
 20
226.57151607905416
 11
341.25325009440314
 21
226.57151607905416
  0
LINE
  8
_1-0_
  6
CONTINUOUS
 62
    7
 10
237.27119278074187
 20
111.51506680751697
 11
242.30731074685252
 21
114.42265793135564
  0
LINE
  8
ADD_LINE
  6
DOT
 62
    7
 10
233.8693406111895
 20
111.51506680751697
 11
246.03150277335163
 21
111.51506680751697
  0
LINE
  8
_1-0_
  6
CONTINUOUS
 62
    7
 10
237.27119278074187
 20
111.51506680751697
 11
242.30731074685252
 21
108.60747568367829
  0
LINE
  8
ADD_LINE
  6
DOT
 62
    7
 10
233.8693406111895
 20
111.51506680751697
 11
235.20138340838122
 21
111.51506680751697
  0
LINE
  8
ADD_LINE
  6
DOT
 62
    7
 10
235.72261539476213
 20
111.51506680751697
 11
246.03150277335163
 21
111.51506680751697
  0
LINE
  8
_1-0_
  6
CONTINUOUS
 62
    7
 10
292.78825128211429
 20
111.51506680751697
 11
237.27119278074187
 21
111.51506680751697
  0
LINE
  8
_1-0_
  6
CONTINUOUS
 62
    7
 10
237.27119278074187
 20
123.67722896967913
 11
237.27119278074187
 21
104.24673234145912
  0
LINE
  8
_1-0_
  6
CONTINUOUS
 62
    7
 10
302.78825953010841
 20
226.57151607905416
 11
300.82106345219461
 21
223.16424497738609
  0
LINE
  8
_1-0_
  6
CONTINUOUS
 62
    7
 10
302.78825953010841
 20
226.57151607905416
 11
304.75545560802226
 21
223.16424497738609
  0
LINE
  8
_1-0_
  6
CONTINUOUS
 62
    7
 10
302.78825953010841
 20
121.51506268351991
 11
302.78825953010841
 21
226.57151607905416
  0
LINE
  8
_1-0_
  6
CONTINUOUS
 62
    7
 10
302.78825953010841
 20
128.30808999427794
 11
307.34320601712278
 21
130.95966750562718
  0
LINE
  8
_1-0_
  6
CONTINUOUS
 62
    7
 10
302.78825953010841
 20
128.30808999427794
 11
313.02514192031111
 21
128.30808999427794
  0
LINE
  8
_1-0_
  6
CONTINUOUS
 62
    7
 10
237.27114329277734
 20
119.33907688326656
 11
277.27117628475366
 21
119.33907688326656
  0
ARC
  8
_1-0_
  6
CONTINUOUS
 62
    7
 10
292.78825128211429
 20
121.51506268351991
 40
9.9999997422501856
 50
270
 51
0
  0
POINT
  8
_1-0_
 62
    7
 10
341.25325009440314
 20
166.57152845104525
  0
POINT
  8
_1-0_
 62
    7
 10
341.25325009440314
 20
226.57151607905416
  0
POINT
  8
_1-0_
 62
    7
 10
237.27114329277734
 20
119.33907688326656
  0
POINT
  8
_1-0_
 62
    7
 10
277.27117628475366
 20
119.33907688326656
  0
TEXT
  8
_1-0_
 62
    7
 10
340.7532484448044
 20
194.69651607905416
 40
3
 41
1
 50
90
  1
300
  0
TEXT
  8
_1-0_
 62
    7
 10
323.09139393282169
 20
124.70952316573064
 40
3
 41
1
 50
0
  1
２重貼り
  0
TEXT
  8
_1-0_
 62
    7
 10
342.83444417300325
 20
183.02047419244099
 40
3
 41
1
 50
0
  1
下葺き材立上がり寸法
  0
TEXT
  8
_1-0_
 62
    7
 10
316.20263627868314
 20
128.35896362181174
 40
3
 41
1
 50
0
  1
ゴムアス系ルーフィング
  0
TEXT
  8
_1-0_
 62
    7
 10
255.39615978876549
 20
119.83907853286537
 40
3
 41
1
 50
0
  1
200
  0
LINE
  8
ADD_LINE
  6
DOT
 62
    4
 10
217.07726330598487
 20
166.06329623709257
 11
230.66959751463912
 21
135.85789662075874
  0
LINE
  8
ADD_LINE
  6
DOT
 62
    4
 10
173.85213275470244
 20
146.61212432317987
 11
187.44446696335666
 21
116.40672470684605
  0
LINE
  8
ADD_LINE
  6
DOT
 62
    4
 10
130.62700220341998
 20
127.16095240926717
 11
144.2193364120742
 21
96.955552792933361
  0
LINE
  8
ADD_LINE
  6
DOT
 62
    4
 10
87.401871652137487
 20
107.70978049535445
 11
100.99420586079174
 21
77.504380879020644
  0
LINE
  8
_1-0_
  6
CONTINUOUS
 62
    7
 10
222.06397648301149
 20
143.28463095905866
 11
220.8328891334549
 21
146.02039987005952
  0
LINE
  8
_1-0_
  6
CONTINUOUS
 62
    7
 10
220.8328891334549
 20
146.02039987005952
 11
225.21012433985271
 21
147.9901445781465
  0
LINE
  8
_1-0_
  6
CONTINUOUS
 62
    7
 10
225.21012433985271
 20
147.9901445781465
 11
226.4412116894093
 21
145.25437566714567
  0
LINE
  8
_1-0_
  6
CONTINUOUS
 62
    7
 10
226.4412116894093
 20
145.25437566714567
 11
222.06397648301149
 21
143.28463095905866
  0
LINE
  8
_1-0_
  6
CONTINUOUS
 62
    7
 10
222.06397648301149
 20
143.28463095905866
 11
225.21012433985271
 21
147.9901445781465
  0
LINE
  8
_1-0_
  6
CONTINUOUS
 62
    7
 10
178.83889837286642
 20
123.83334250846531
 11
177.60781102330984
 21
126.56911141946617
  0
LINE
  8
_1-0_
  6
CONTINUOUS
 62
    7
 10
177.60781102330984
 20
126.56911141946617
 11
181.98504622970765
 21
128.53885612755315
  0
LINE
  8
_1-0_
  6
CONTINUOUS
 62
    7
 10
181.98504622970765
 20
128.53885612755315
 11
183.21613357926424
 21
125.80308721655231
  0
LINE
  8
_1-0_
  6
CONTINUOUS
 62
    7
 10
183.21613357926424
 20
125.80308721655231
 11
178.83889837286642
 21
123.83334250846531
  0
LINE
  8
_1-0_
  6
CONTINUOUS
 62
    7
 10
178.83889837286642
 20
123.83334250846531
 11
181.98504622970765
 21
128.53885612755315
  0
LINE
  8
_1-0_
  6
CONTINUOUS
 62
    7
 10
135.61382026272136
 20
104.38205405787195
 11
134.38273291316477
 21
107.11782296887282
  0
LINE
  8
_1-0_
  6
CONTINUOUS
 62
    7
 10
134.38273291316477
 20
107.11782296887282
 11
138.75996811956259
 21
109.08756767695979
  0
LINE
  8
_1-0_
  6
CONTINUOUS
 62
    7
 10
138.75996811956259
 20
109.08756767695979
 11
139.99105546911917
 21
106.35179876595896
  0
LINE
  8
_1-0_
  6
CONTINUOUS
 62
    7
 10
139.99105546911917
 20
106.35179876595896
 11
135.61382026272136
 21
104.38205405787195
  0
LINE
  8
_1-0_
  6
CONTINUOUS
 62
    7
 10
135.61382026272136
 20
104.38205405787195
 11
138.75996811956259
 21
109.08756767695979
  0
LINE
  8
_1-0_
  6
CONTINUOUS
 62
    7
 10
92.38874215257627
 20
84.930765607278587
 11
91.157654803019682
 21
87.666534518279448
  0
LINE
  8
_1-0_
  6
CONTINUOUS
 62
    7
 10
91.157654803019682
 20
87.666534518279448
 11
95.534890009417495
 21
89.636279226366426
  0
LINE
  8
_1-0_
  6
CONTINUOUS
 62
    7
 10
95.534890009417495
 20
89.636279226366426
 11
96.765977358974084
 21
86.900510315365594
  0
LINE
  8
_1-0_
  6
CONTINUOUS
 62
    7
 10
96.765977358974084
 20
86.900510315365594
 11
92.38874215257627
 21
84.930765607278587
  0
LINE
  8
_1-0_
  6
CONTINUOUS
 62
    7
 10
92.38874215257627
 20
84.930765607278587
 11
95.534890009417495
 21
89.636279226366426
  0
LINE
  8
_1-1_
  6
CONTINUOUS
 62
    7
 10
137.32113144758733
 20
107.26871880199667
 11
120.04003598254924
 21
154.74812940290187
  0
TEXT
  8
_1-0_
 62
    7
 10
132.6145707811296
 20
166.07260878951504
 40
3
 41
1
 50
0
  1
下葺き材　　　ゴムアス系ルーフィング
  0
TEXT
  8
_1-0_
 62
    7
 10
146.99626815232889
 20
180.85973631010205
 40
3
 41
1
 50
0
  1
18ｘ24
  0
TEXT
  8
_1-0_
 62
    7
 10
146.99626815232889
 20
152.83040891752393
 40
3
 41
1
 50
0
  1
60ｘ60
  0
LINE
  8
_1-0_
  6
CONTINUOUS
 62
    7
 10
120.04002541056369
 20
154.74812940290187
 11
126.12808429464306
 21
154.74812940290187
  0
LINE
  8
_1-0_
  6
CONTINUOUS
 62
    7
 10
109.84886989958397
 20
182.74812280450661
 11
126.12808429464306
 21
182.74812280450661
  0
LINE
  8
_1-0_
  6
CONTINUOUS
 62
    7
 10
112.39665877732889
 20
175.74812445410541
 11
126.12808429464306
 21
175.74812445410541
  0
LINE
  8
_1-0_
  6
CONTINUOUS
 62
    7
 10
114.94444765507384
 20
168.74812610370424
 11
126.12808429464306
 21
168.74812610370424
  0
LINE
  8
_1-0_
  6
CONTINUOUS
 62
    7
 10
117.49223653281877
 20
161.74812775330307
 11
126.12808429464306
 21
161.74812775330307
  0
TEXT
  8
_1-0_
 62
    7
 10
132.6145728431282
 20
180.85973631010205
 40
3
 41
1
 50
0
  1
瓦桟
  0
TEXT
  8
_1-0_
 62
    7
 10
132.6145707811296
 20
173.35582676090439
 40
3
 41
1
 50
0
  1
流し桟
  0
TEXT
  8
_1-0_
 62
    7
 10
132.6145707811296
 20
159.45151503951504
 40
3
 41
1
 50
0
  1
野地板
  0
TEXT
  8
_1-0_
 62
    7
 10
132.6145728431282
 20
152.83040891752393
 40
3
 41
1
 50
0
  1
垂木
  0
TEXT
  8
_1-0_
 62
    7
 10
146.99627021432744
 20
159.45151503951504
 40
3
 41
1
 50
0
  1
耐水合板　ｔ＝12
  0
LINE
  8
_1-0_
  6
CONTINUOUS
 62
    7
 10
120.04003598254924
 20
154.74812940290187
 11
109.84886989958397
 21
182.74812280450661
  0
LINE
  8
_1-1_
  6
CONTINUOUS
 62
    7
 10
232.27307762527872
 20
95.896842391927521
 11
232.27308524614764
 21
95.896851561404048
  0
LINE
  8
_1-1_
  6
CONTINUOUS
 62
    7
 10
88.696178183945051
 20
91.552613442875895
 11
89.443248496445051
 21
91.150251547288903
  0
LINE
  8
_1-1_
  6
CONTINUOUS
 62
    7
 10
96.550586241905364
 20
93.908092090468799
 11
95.401166405809533
 21
93.563396045546924
  0
LINE
  8
_1-1_
  6
CONTINUOUS
 62
    7
 10
88.696178183945051
 20
91.552613442875895
 11
87.738326258533334
 21
91.265360552778773
  0
LINE
  8
_1-1_
  6
CONTINUOUS
 62
    7
 10
95.401166405809533
 20
93.563396045546924
 11
95.573508242274897
 21
92.988679941503435
  0
LINE
  8
_1-1_
  6
CONTINUOUS
 62
    7
 10
87.738326258533334
 20
91.265360552778773
 11
87.910680466989845
 21
90.69064444873527
  0
LINE
  8
_1-1_
  6
CONTINUOUS
 62
    7
 10
95.573508242274897
 20
92.988679941503435
 11
89.443248496445051
 21
91.150251547288903
  0
LINE
  8
_1-1_
  6
CONTINUOUS
 62
    7
 10
96.550586241905364
 20
93.908092090468799
 11
98.216660427663385
 21
88.352536076691351
  0
LINE
  8
_1-1_
  6
CONTINUOUS
 62
    7
 10
96.338555057889323
 20
88.125015159778357
 11
95.534870513970418
 21
89.63629099249583
  0
LINE
  8
_1-1_
  6
CONTINUOUS
 62
    7
 10
96.806624598377084
 20
87.929673791799019
 11
98.216660427663385
 21
88.352536076691351
  0
LINE
  8
ADD_LINE
  6
DOT
 62
    4
 10
138.7599599222263
 20
109.08757256581721
 11
80.754819772310782
 21
89.462551121032561
  0
LINE
  8
_1-1_
  6
CONTINUOUS
 62
    7
 10
140.84391048045052
 20
109.79263996842489
 11
86.471582830534999
 21
91.39672635461578
  0
LINE
  8
_1-1_
  6
CONTINUOUS
 62
    7
 10
131.8585910851275
 20
110.76421243200173
 11
132.61923347189907
 21
110.38815338956088
  0
LINE
  8
_1-1_
  6
CONTINUOUS
 62
    7
 10
139.62606116140495
 20
113.39220892825385
 11
138.48935973219255
 21
113.00762558392319
  0
LINE
  8
_1-1_
  6
CONTINUOUS
 62
    7
 10
131.8585910851275
 20
110.76421243200173
 11
130.91134195611568
 21
110.44372837372471
  0
LINE
  8
_1-1_
  6
CONTINUOUS
 62
    7
 10
138.48935973219255
 20
113.00762558392319
 11
138.68165759035344
 21
112.43926868332142
  0
LINE
  8
_1-1_
  6
CONTINUOUS
 62
    7
 10
130.91134195611568
 20
110.44372837372471
 11
131.10362744228547
 21
109.87538384511409
  0
LINE
  8
_1-1_
  6
CONTINUOUS
 62
    7
 10
131.10362744228547
 20
109.87538384511409
 11
86.772185099063336
 21
94.876608672236102
  0
LINE
  8
_1-1_
  6
CONTINUOUS
 62
    7
 10
138.68165759035344
 20
112.43926868332142
 11
132.61923347189907
 21
110.38815338956088
  0
LINE
  8
_1-1_
  6
CONTINUOUS
 62
    7
 10
139.62606116140495
 20
113.39220892825385
 11
141.48489096899573
 21
107.89814171040125
  0
LINE
  8
_1-1_
  6
CONTINUOUS
 62
    7
 10
139.61585426872125
 20
107.60524719234805
 11
138.7599599222263
 21
109.08757256581721
  0
LINE
  8
_1-1_
  6
CONTINUOUS
 62
    7
 10
140.09045622052656
 20
107.42636057257396
 11
141.48489096899573
 21
107.89814171040125
  0
LINE
  8
_1-1_
  6
CONTINUOUS
 62
    7
 10
85.062846060317554
 20
90.286686566292289
 11
83.253764029067554
 21
89.67461942102203
  0
LINE
  8
_1-1_
  6
CONTINUOUS
 62
    7
 10
184.06899988870646
 20
129.24393391373741
 11
129.69665986679979
 21
110.84800792793713
  0
LINE
  8
_1-1_
  6
CONTINUOUS
 62
    7
 10
175.08366812139229
 20
130.21550637731423
 11
175.84432288015495
 21
129.8394473348734
  0
LINE
  8
_1-1_
  6
CONTINUOUS
 62
    7
 10
182.85115056966089
 20
132.84349050157522
 11
181.71443676845735
 21
132.4589071572446
  0
LINE
  8
_1-1_
  6
CONTINUOUS
 62
    7
 10
175.08366812139229
 20
130.21550637731423
 11
174.13641899238047
 21
129.89500994704611
  0
LINE
  8
_1-1_
  6
CONTINUOUS
 62
    7
 10
181.71443676845735
 20
132.4589071572446
 11
181.90672225462708
 21
131.89055025664283
  0
LINE
  8
_1-1_
  6
CONTINUOUS
 62
    7
 10
174.13641899238047
 20
129.89500994704611
 11
174.32870447855021
 21
129.32666541843543
  0
LINE
  8
_1-1_
  6
CONTINUOUS
 62
    7
 10
174.32870447855021
 20
129.32666541843543
 11
129.99726213532813
 21
114.3279026175486
  0
LINE
  8
_1-1_
  6
CONTINUOUS
 62
    7
 10
181.90672225462708
 20
131.89055025664283
 11
175.84432288015495
 21
129.8394473348734
  0
LINE
  8
_1-1_
  6
CONTINUOUS
 62
    7
 10
182.85115056966089
 20
132.84349050157522
 11
184.70996800526052
 21
127.3494232837226
  0
LINE
  8
_1-1_
  6
CONTINUOUS
 62
    7
 10
182.84093130498604
 20
127.0565287656694
 11
181.98503695849109
 21
128.53885413913855
  0
LINE
  8
_1-1_
  6
CONTINUOUS
 62
    7
 10
183.3155456287825
 20
126.87764214589534
 11
184.70996800526052
 21
127.3494232837226
  0
LINE
  8
_1-1_
  6
CONTINUOUS
 62
    7
 10
128.28793546857344
 20
109.73798051160479
 11
126.47884106533235
 21
109.12590099434338
  0
LINE
  8
_1-1_
  6
CONTINUOUS
 62
    7
 10
227.29406455298016
 20
148.69522785904991
 11
172.92173690306458
 21
130.29930187324965
  0
LINE
  8
_1-1_
  6
CONTINUOUS
 62
    7
 10
218.30875752964823
 20
149.66680032262673
 11
219.06938754442865
 21
149.2907412801859
  0
LINE
  8
_1-1_
  6
CONTINUOUS
 62
    7
 10
226.07621523393453
 20
152.29478444688772
 11
224.93952617671323
 21
151.9102011025571
  0
LINE
  8
_1-1_
  6
CONTINUOUS
 62
    7
 10
218.30875752964823
 20
149.66680032262673
 11
217.36150840063641
 21
149.34631626434975
  0
LINE
  8
_1-1_
  6
CONTINUOUS
 62
    7
 10
224.93952617671323
 20
151.9102011025571
 11
225.13181166288302
 21
151.34185657394642
  0
LINE
  8
_1-1_
  6
CONTINUOUS
 62
    7
 10
217.36150840063641
 20
149.34631626434975
 11
217.55379388680615
 21
148.77795936374793
  0
LINE
  8
_1-1_
  6
CONTINUOUS
 62
    7
 10
217.55379388680615
 20
148.77795936374793
 11
173.22235154358401
 21
133.7791965628611
  0
LINE
  8
_1-1_
  6
CONTINUOUS
 62
    7
 10
225.13181166288302
 20
151.34185657394642
 11
219.06938754442865
 21
149.2907412801859
  0
LINE
  8
_1-1_
  6
CONTINUOUS
 62
    7
 10
226.07621523393453
 20
152.29478444688772
 11
227.93505741351646
 21
146.80071722903511
  0
LINE
  8
_1-1_
  6
CONTINUOUS
 62
    7
 10
226.06602071324198
 20
146.50782271098188
 11
225.21012636674703
 21
147.9901604564422
  0
LINE
  8
_1-1_
  6
CONTINUOUS
 62
    7
 10
226.54061029305615
 20
146.32893609120782
 11
227.93505741351646
 21
146.80071722903511
  0
LINE
  8
_1-1_
  6
CONTINUOUS
 62
    7
 10
171.51301250483823
 20
129.1892744569173
 11
169.70393047358823
 21
128.5771949396559
  0
LINE
  8
_1-1_
  6
CONTINUOUS
 62
    7
 10
270.51915396123604
 20
168.14650943237126
 11
216.14682631132052
 21
149.75059581856215
  0
LINE
  8
_1-1_
  6
CONTINUOUS
 62
    7
 10
261.53382219392188
 20
169.11808189594814
 11
262.29447695268453
 21
168.74202285350725
  0
LINE
  8
_1-1_
  6
CONTINUOUS
 62
    7
 10
269.30130464219047
 20
171.74606602020913
 11
268.16459084098693
 21
171.3614950478696
  0
LINE
  8
_1-1_
  6
CONTINUOUS
 62
    7
 10
261.53382219392188
 20
169.11808189594814
 11
260.58657306491006
 21
168.79759783767111
  0
LINE
  8
_1-1_
  6
CONTINUOUS
 62
    7
 10
268.16459084098693
 20
171.3614950478696
 11
268.35690107113891
 21
170.79315051925892
  0
LINE
  8
_1-1_
  6
CONTINUOUS
 62
    7
 10
260.58657306491006
 20
168.79759783767111
 11
260.77885855107979
 21
168.22925330906043
  0
LINE
  8
_1-1_
  6
CONTINUOUS
 62
    7
 10
260.77885855107979
 20
168.22925330906043
 11
216.44741620785766
 21
153.23047813618251
  0
LINE
  8
_1-1_
  6
CONTINUOUS
 62
    7
 10
268.35690107113891
 20
170.79315051925892
 11
262.29447695268453
 21
168.74202285350725
  0
LINE
  8
_1-1_
  6
CONTINUOUS
 62
    7
 10
269.30130464219047
 20
171.74606602020913
 11
271.16012207779011
 21
166.25201117434761
  0
LINE
  8
_1-1_
  6
CONTINUOUS
 62
    7
 10
269.29108537751563
 20
165.95911665629438
 11
268.43519103102068
 21
167.4414544017547
  0
LINE
  8
_1-1_
  6
CONTINUOUS
 62
    7
 10
269.76569970131209
 20
165.78021766452918
 11
271.16012207779011
 21
166.25201117434761
  0
LINE
  8
_1-1_
  6
CONTINUOUS
 62
    7
 10
214.73810191309417
 20
148.64055603023866
 11
212.92899513786193
 21
148.0284888849684
  0
ARC
  8
_1-1_
  6
CONTINUOUS
 62
    7
 10
96.691713544745312
 20
88.312821985158394
 40
0.4000000051549963
 50
208.00352478027344
 51
286.693603515625
  0
ARC
  8
_1-1_
  6
CONTINUOUS
 62
    7
 10
85.041232191810366
 20
90.490515120187979
 40
0.2000000025774981
 50
288.69233703613281
 51
314.09980773925781
  0
ARC
  8
_1-1_
  6
CONTINUOUS
 62
    7
 10
139.96225764841932
 20
107.80526517297515
 40
0.4000000051549963
 50
210.00225830078122
 51
288.69233703613281
  0
ARC
  8
_1-1_
  6
CONTINUOUS
 62
    7
 10
91.843142592200991
 20
83.471439159461625
 40
9.5741179182722771
 50
124.12844848632812
 51
133.83956909179687
  0
ARC
  8
_1-1_
  6
CONTINUOUS
 62
    7
 10
84.934659860201407
 20
90.66559116669346
 40
0.4000000051549963
 50
288.69233703613281
 51
313.83956909179687
  0
ARC
  8
_1-1_
  6
CONTINUOUS
 62
    7
 10
93.109069468784583
 20
75.770777835295661
 40
20.129313082308386
 50
108.34925842285153
 51
121.81558227539061
  0
ARC
  8
_1-1_
  6
CONTINUOUS
 62
    7
 10
82.708023128254638
 20
92.535741346169814
 40
0.4000000051549963
 50
121.8155822753906
 51
198.69233703613278
  0
ARC
  8
_1-1_
  6
CONTINUOUS
 62
    7
 10
128.26630922807516
 20
109.94179669350933
 40
0.2000000025774981
 50
288.69233703613281
 51
314.09980773925781
  0
ARC
  8
_1-1_
  6
CONTINUOUS
 62
    7
 10
183.18734705667521
 20
127.25654674629651
 40
0.4000000051549963
 50
210.00225830078122
 51
288.69233703613281
  0
ARC
  8
_1-1_
  6
CONTINUOUS
 62
    7
 10
135.06823200045693
 20
102.92273310477412
 40
9.5741179182722771
 50
124.12844848632812
 51
133.83956909179687
  0
ARC
  8
_1-1_
  6
CONTINUOUS
 62
    7
 10
128.1597368964662
 20
110.11687274001484
 40
0.4000000051549963
 50
288.69233703613281
 51
313.83956909179687
  0
ARC
  8
_1-1_
  6
CONTINUOUS
 62
    7
 10
136.33414650504938
 20
95.222059408617028
 40
20.129313082308386
 50
108.34925842285153
 51
121.81558227539061
  0
ARC
  8
_1-1_
  6
CONTINUOUS
 62
    7
 10
125.93311253651052
 20
111.9870229194912
 40
0.4000000051549963
 50
121.8155822753906
 51
198.69233703613278
  0
ARC
  8
_1-1_
  6
CONTINUOUS
 62
    7
 10
171.49138626433995
 20
129.39309063882183
 40
0.2000000025774981
 50
288.69233703613281
 51
314.09980773925781
  0
ARC
  8
_1-1_
  6
CONTINUOUS
 62
    7
 10
226.41241172094891
 20
146.70784069160902
 40
0.4000000051549963
 50
210.00225830078122
 51
288.69233703613281
  0
ARC
  8
_1-1_
  6
CONTINUOUS
 62
    7
 10
178.29330903672167
 20
122.37402705008664
 40
9.5741179182722771
 50
124.12844848632812
 51
133.83956909179687
  0
ARC
  8
_1-1_
  6
CONTINUOUS
 62
    7
 10
171.38481393273099
 20
129.56817905731845
 40
0.4000000051549963
 50
288.69233703613281
 51
313.83956909179687
  0
ARC
  8
_1-1_
  6
CONTINUOUS
 62
    7
 10
179.55923591330532
 20
114.67335335392953
 40
20.129313082308386
 50
108.34925842285153
 51
121.81558227539061
  0
ARC
  8
_1-1_
  6
CONTINUOUS
 62
    7
 10
169.15820194476646
 20
131.43831686480371
 40
0.4000000051549963
 50
121.8155822753906
 51
198.69233703613278
  0
ARC
  8
_1-1_
  6
CONTINUOUS
 62
    7
 10
214.71647567259583
 20
148.84438458413433
 40
0.2000000025774981
 50
288.69233703613281
 51
314.09980773925781
  0
ARC
  8
_1-1_
  6
CONTINUOUS
 62
    7
 10
269.63750112920479
 20
166.15912226493037
 40
0.4000000051549963
 50
210.00225830078122
 51
288.69233703613281
  0
ARC
  8
_1-1_
  6
CONTINUOUS
 62
    7
 10
221.51839844497761
 20
141.82530862340798
 40
9.5741179182722771
 50
124.12844848632812
 51
133.83956909179687
  0
ARC
  8
_1-1_
  6
CONTINUOUS
 62
    7
 10
214.60990334098693
 20
149.01946063063986
 40
0.4000000051549963
 50
288.69233703613281
 51
313.83956909179687
  0
ARC
  8
_1-1_
  6
CONTINUOUS
 62
    7
 10
222.78430057757896
 20
134.12464729924204
 40
20.129313082308386
 50
108.34925842285153
 51
121.81558227539061
  0
ARC
  8
_1-1_
  6
CONTINUOUS
 62
    7
 10
212.38326660904011
 20
150.88961081011621
 40
0.4000000051549963
 50
121.8155822753906
 51
198.69233703613278
  0
LINE
  8
_1-1_
  6
CONTINUOUS
 62
    7
 10
95.534962840025514
 20
89.636117379432278
 11
81.653675824310398
 21
84.939627471622302
  0
LINE
  8
_1-1_
  6
CONTINUOUS
 62
    7
 10
87.910680466989845
 20
90.69064444873527
 11
79.532777167223117
 21
88.17817268186252
  0
LINE
  8
_1-0_
  6
CONTINUOUS
 62
    7
 10
95.347027112782797
 20
68.497294281091342
 11
277.27120102873596
 21
150.36319319317997
  0
TEXT
  8
_0-1_
 62
    7
 10
310.75285402229287
 20
13.379928041157285
 40
3
 41
1
 50
0
  1
〒475－0807　半田市八軒町２８番地
  0
TEXT
  8
_1-0_
 62
    7
 10
334.84761946949209
 20
210.189654790546
 40
3
 41
1
 50
0
  1
水切り鉄板立上がり寸法
  0
LINE
  8
_1-1_
  6
CONTINUOUS
 62
    7
 10
80.576995924399142
 20
97.586300100331002
 11
76.555919624767284
 21
96.225839486097243
  0
ARC
  8
_1-1_
  6
CONTINUOUS
 62
    7
 10
79.887761288391005
 20
100.87156682329288
 40
0.4000000051549963
 50
121.8155822753906
 51
198.69228021680235
  0
LINE
  8
_1-1_
  6
CONTINUOUS
 62
    7
 10
79.508859896602559
 20
100.74337267574516
 11
83.253764029067554
 21
89.67461942102203
  0
LINE
  8
_1-1_
  6
CONTINUOUS
 62
    7
 10
123.90607163238238
 20
116.73022888759897
 11
83.723574667481884
 21
103.13518605858316
  0
ARC
  8
_1-1_
  6
CONTINUOUS
 62
    7
 10
90.288807628920921
 20
84.106603312418741
 40
20.129313082308386
 50
109.03543508346425
 51
121.8156192143496
  0
ARC
  8
_1-1_
  6
CONTINUOUS
 62
    7
 10
123.1128383246558
 20
120.32284839661423
 40
0.4000000051549963
 50
121.8155822753906
 51
198.69228021680235
  0
ARC
  8
_1-1_
  6
CONTINUOUS
 62
    7
 10
133.51388466518571
 20
103.55788488574009
 40
20.129313082308386
 50
109.03543508346425
 51
121.8156192143496
  0
ARC
  8
_1-1_
  6
CONTINUOUS
 62
    7
 10
166.33792773291168
 20
139.77414234192673
 40
0.4000000051549963
 50
121.8155822753906
 51
198.69228021680235
  0
ARC
  8
_1-1_
  6
CONTINUOUS
 62
    7
 10
176.7389740734416
 20
123.00917883105259
 40
20.129313082308386
 50
109.03543508346425
 51
121.8156192143496
  0
ARC
  8
_1-1_
  6
CONTINUOUS
 62
    7
 10
209.56299239718538
 20
159.22543628723923
 40
0.4000000051549963
 50
121.8155822753906
 51
198.69228021680235
  0
LINE
  8
_1-1_
  6
CONTINUOUS
 62
    7
 10
266.67331815928526
 20
179.5135471724526
 11
213.39880444688805
 21
161.48905945176787
  0
LINE
  8
_1-1_
  6
CONTINUOUS
 62
    7
 10
209.18409100539674
 20
159.09724213969145
 11
212.92899513786193
 21
148.0284888849684
  0
LINE
  8
_1-1_
  6
CONTINUOUS
 62
    7
 10
210.35621568102641
 20
155.63281198089416
 11
170.17373716528502
 21
142.03777324242046
  0
LINE
  8
_1-1_
  6
CONTINUOUS
 62
    7
 10
165.95789268104039
 20
139.64934905896169
 11
169.70393047358823
 21
128.5771949396559
  0
LINE
  8
_1-1_
  6
CONTINUOUS
 62
    7
 10
167.13116116147432
 20
136.18152247575659
 11
126.94864905343425
 21
122.58647546536113
  0
LINE
  8
_1-1_
  6
CONTINUOUS
 62
    7
 10
122.73395214477561
 20
120.1946593957058
 11
126.47884106533235
 21
109.12590099434338
  0
LINE
  8
_1-1_
  6
CONTINUOUS
 62
    7
 10
269.30130464219047
 20
171.74606602020913
 11
266.67331815928526
 21
179.5135471724526
  0
LINE
  8
_1-0_
  6
CONTINUOUS
 62
    7
 10
259.80771489856278
 20
183.75115457811103
 11
259.0354799561008
 21
186.65006056417525
  0
LINE
  8
_1-0_
  6
CONTINUOUS
 62
    7
 10
259.0354799561008
 20
186.65006056417525
 11
261.93438594216497
 21
187.42229550663723
  0
LINE
  8
_1-0_
  6
CONTINUOUS
 62
    7
 10
261.93438594216497
 20
187.42229550663723
 11
262.706620884627
 21
184.52338952057301
  0
LINE
  8
_1-0_
  6
CONTINUOUS
 62
    7
 10
262.706620884627
 20
184.52338952057301
 11
259.80771489856278
 21
183.75115457811103
  0
LINE
  8
_1-0_
  6
CONTINUOUS
 62
    2
 10
252.72385919227054
 20
183.95540377970519
 11
256.59322416270976
 21
183.18153573441384
  0
LINE
  8
_1-0_
  6
CONTINUOUS
 62
    2
 10
252.72385919227054
 20
183.95540377970519
 11
275.82489052145138
 21
194.23959666399577
  0
LINE
  8
_1-0_
  6
CONTINUOUS
 62
    7
 10
259.5796991020045
 20
184.60713552854389
 11
260.30358430312361
 21
183.88323795543369
  0
LINE
  8
_1-0_
  6
CONTINUOUS
 62
    7
 10
259.27158703485924
 20
185.76376823546957
 11
260.97362659883731
 21
184.06172867149155
  0
LINE
  8
_1-0_
  6
CONTINUOUS
 62
    7
 10
259.19208461984658
 20
186.6917789182715
 11
261.64364415056872
 21
184.24021938754936
  0
LINE
  8
_1-0_
  6
CONTINUOUS
 62
    7
 10
259.86212691556028
 20
186.87026963432936
 11
262.31368644628236
 21
184.41871010360722
  0
LINE
  8
_1-0_
  6
CONTINUOUS
 62
    7
 10
260.53214446729169
 20
187.04876035038723
 11
262.57921411995216
 21
185.00169069772676
  0
LINE
  8
_1-0_
  6
CONTINUOUS
 62
    7
 10
261.20218676300539
 20
187.22723869445394
 11
262.2711020528069
 21
186.15832340465244
  0
LINE
  8
_1-0_
  6
CONTINUOUS
 62
    7
 10
261.87220431473679
 20
187.40572941051181
 11
261.96298998566164
 21
187.31494373958697
  0
LINE
  8
_1-0_
  6
CONTINUOUS
 62
    7
 10
262.1117755510121
 20
184.36492905815749
 11
262.61482071042934
 21
184.86797421757473
  0
LINE
  8
_1-0_
  6
CONTINUOUS
 62
    7
 10
260.95514284408642
 20
184.05680461902108
 11
262.43634236636262
 21
185.53801651328843
  0
LINE
  8
_1-0_
  6
CONTINUOUS
 62
    7
 10
259.80627974759153
 20
183.75648690628884
 11
262.25783927831361
 21
186.20804643701098
  0
LINE
  8
_1-0_
  6
CONTINUOUS
 62
    7
 10
259.62780140352481
 20
184.42652920200248
 11
262.07936093424689
 21
186.87808873272462
  0
LINE
  8
_1-0_
  6
CONTINUOUS
 62
    7
 10
259.44932305945804
 20
185.09657149771618
 11
261.71718326585585
 21
187.364431704114
  0
LINE
  8
_1-0_
  6
CONTINUOUS
 62
    7
 10
259.27081997140908
 20
185.76661379342988
 11
260.56052581494794
 21
187.05631963696874
  0
LINE
  8
_1-0_
  6
CONTINUOUS
 62
    7
 10
259.09231688336007
 20
186.43665608914353
 11
259.40386836403997
 21
186.74819519783233
  0
LINE
  8
_1-0_
  6
CONTINUOUS
 62
    7
 10
270.3368732072621
 20
199.2396007879928
 11
272.7368662789471
 21
199.2396007879928
  0
LINE
  8
_1-0_
  6
CONTINUOUS
 62
    7
 10
270.3368732072621
 20
199.2396007879928
 11
270.3368732072621
 21
258.53012895654223
  0
LINE
  8
_1-0_
  6
CONTINUOUS
 62
    7
 10
272.7368662789471
 20
199.2396007879928
 11
272.7368662789471
 21
258.53012895654223
  0
LINE
  8
_1-0_
  6
CONTINUOUS
 62
    7
 10
260.40382217527309
 20
186.01265558106712
 11
247.4105096488795
 21
221.71150399613259
  0
LINE
  8
_1-0_
  6
CONTINUOUS
 62
    7
 10
252.90931533933559
 20
180.30253628208061
 11
243.08563270895132
 21
207.29290097538723
  0
LINE
  8
_1-0_
  6
CONTINUOUS
 62
    7
 10
250.35855718371903
 20
241.59651046255993
 11
246.35856873091075
 21
241.59651046255993
  0
LINE
  8
_1-0_
  6
CONTINUOUS
 62
    7
 10
247.4105096488795
 20
221.71150399613259
 11
243.41052119607127
 21
221.71150399613259
  0
LINE
  8
_1-0_
  6
CONTINUOUS
 62
    7
 10
243.08563270895132
 20
207.29290097538723
 11
239.0856195121608
 21
207.29290097538723
  0
LINE
  8
_1-0_
  6
CONTINUOUS
 62
    7
 10
271.37636790215231
 20
232.98647067423644
 11
261.74749464412866
 21
259.44159828720103
  0
LINE
  8
_1-0_
  6
CONTINUOUS
 62
    7
 10
261.74749464412866
 20
259.44159828720103
 11
257.74750619132038
 21
259.44159828720103
  0
LINE
  8
_1-0_
  6
CONTINUOUS
 62
    7
 10
268.74261843002392
 20
191.0866936999966
 11
250.35855718371903
 21
241.59651046255993
  0
ARC
  8
_1-2_
  6
CONTINUOUS
 62
    7
 10
277.43456024125828
 20
141.52789102513466
 40
41.612016832506335
 50
97.810257418372657
 51
127.32490585587266
  0
LINE
  8
_1-2_
  6
CONTINUOUS
 62
    7
 10
251.4699549817617
 20
179.96809080893476
 11
252.20377887908899
 21
174.61818134109018
  0
ARC
  8
_1-2_
  6
CONTINUOUS
 62
    7
 10
279.4669756992285
 20
126.71062616515594
 40
60.168024011560398
 50
97.810257418372657
 51
117.73054550431014
  0
LINE
  8
_1-2_
  6
CONTINUOUS
 62
    7
 10
271.77977082012507
 20
182.75389907122405
 11
271.29057099993605
 21
186.3205018417047
  0
TEXT
  8
_1-0_
 62
    7
 10
227.81558295229735
 20
205.83632921508772
 40
3
 41
1
 50
0
  1
のし瓦
  0
LINE
  8
_1-0_
  6
CONTINUOUS
 62
    2
 10
275.82489052145138
 20
194.23959666399577
 11
275.82489052145138
 21
222.23959666399577
  0
LINE
  8
_1-0_
  6
CONTINUOUS
 62
    7
 10
276.41102597330939
 20
233.06452749672223
 11
276.41102597330939
 21
225.06452584712343
  0
LINE
  8
_1-0_
  6
CONTINUOUS
 62
    7
 10
272.7368662789471
 20
233.06452749672223
 11
276.41102597330939
 21
233.06452749672223
  0
LINE
  8
_1-0_
  6
CONTINUOUS
 62
    7
 10
272.7368662789471
 20
225.06452584712343
 11
276.41102597330939
 21
225.06452584712343
  0
LINE
  8
_1-0_
  6
CONTINUOUS
 62
    7
 10
272.7368662789471
 20
233.06452749672223
 11
276.41102597330939
 21
225.06452584712343
  0
LINE
  8
_1-0_
  6
CONTINUOUS
 62
    7
 10
264.05796398798424
 20
165.47169555540549
 11
268.43519919438205
 21
167.44144026349247
  0
LINE
  8
_1-0_
  6
CONTINUOUS
 62
    7
 10
268.43519919438205
 20
167.44144026349247
 11
269.66628654393867
 21
164.70567135249163
  0
LINE
  8
_1-0_
  6
DASHED1
 62
    3
 10
91.977448719297598
 20
83.429774713054343
 11
276.73685473175544
 21
166.57152845104525
  0
LINE
  8
_1-0_
  6
DASHED1
 62
    3
 10
276.73685473175544
 20
166.57152845104525
 11
276.73685473175544
 21
226.57151607905416
  0
LINE
  8
_1-2_
  6
CONTINUOUS
 62
    7
 10
322.24067762824575
 20
194.23959666399577
 11
322.24067762824575
 21
222.23959666399577
  0
POINT
  8
_1-2_
 62
    7
 10
322.24067762824575
 20
194.23959666399577
  0
POINT
  8
_1-2_
 62
    7
 10
322.24067762824575
 20
222.23959666399577
  0
LINE
  8
_1-2_
  6
CONTINUOUS
 62
    7
 10
322.24067762824575
 20
194.23959666399577
 11
289.75580202377398
 21
194.23959666399577
  0
LINE
  8
_1-2_
  6
CONTINUOUS
 62
    7
 10
322.24067762824575
 20
222.23959666399577
 11
289.75580202377398
 21
222.23959666399577
  0
TEXT
  8
_1-2_
 62
    7
 10
321.74067762824575
 20
205.73959666399577
 40
3
 41
1
 50
90
  1
140
  0
LINE
  8
_1-2_
  6
CONTINUOUS
 62
    7
 10
334.12029590172784
 20
211.64430192607441
 11
322.24067762824575
 21
198.12611561487068
  0
TEXT
  8
_1-0_
 62
    7
 10
215.57731864215808
 20
220.46195317515429
 40
3
 41
1
 50
0
  1
発泡弾性シール材
  0
TEXT
  8
_1-0_
 62
    7
 10
231.63127071678434
 20
240.18538000969514
 40
3
 41
1
 50
0
  1
水切鉄板
  0
TEXT
  8
_1-0_
 62
    7
 10
249.51996017136793
 20
257.76827990095251
 40
3
 41
1
 50
0
  1
外壁
  0
ARC
  8
_1-3_
  6
CONTINUOUS
 62
    7
 10
217.25456562905967
 20
175.84488173859236
 40
40.917760896493952
 50
347.31082196523681
 51
3.5930932165123459
  0
CIRCLE
  8
_1-3_
  6
CONTINUOUS
 62
    7
 10
271.41653674322322
 20
178.21229053938973
 40
0.353474860583331
  0
CIRCLE
  8
_1-3_
  6
CONTINUOUS
 62
    7
 10
259.47030539651763
 20
177.42462693411244
 40
0.353474860583331
  0
CIRCLE
  8
_1-3_
  6
CONTINUOUS
 62
    7
 10
259.92977583292935
 20
176.11185425865028
 40
0.353474860583331
  0
CIRCLE
  8
_1-3_
  6
CONTINUOUS
 62
    7
 10
261.17690987461845
 20
175.78366108978474
 40
0.353474860583331
  0
CIRCLE
  8
_1-3_
  6
CONTINUOUS
 62
    7
 10
261.57074167725705
 20
176.76824059638136
 40
0.353474860583331
  0
CIRCLE
  8
_1-3_
  6
CONTINUOUS
 62
    7
 10
261.96457347989571
 20
177.8184587367511
 40
0.353474860583331
  0
CIRCLE
  8
_1-3_
  6
CONTINUOUS
 62
    7
 10
263.27734615535786
 20
177.94973600429731
 40
0.353474860583331
  0
CIRCLE
  8
_1-3_
  6
CONTINUOUS
 62
    7
 10
264.59011883082002
 20
176.63696332883515
 40
0.353474860583331
  0
CIRCLE
  8
_1-3_
  6
CONTINUOUS
 62
    7
 10
264.45884156327384
 20
175.4554679209192
 40
0.353474860583331
  0
CIRCLE
  8
_1-3_
  6
CONTINUOUS
 62
    7
 10
263.73681659176964
 20
174.73344294941501
 40
0.353474860583331
  0
CIRCLE
  8
_1-3_
  6
CONTINUOUS
 62
    7
 10
262.8835143527192
 20
174.14269524545705
 40
0.353474860583331
  0
CIRCLE
  8
_1-3_
  6
CONTINUOUS
 62
    7
 10
262.4896825500806
 20
173.55194754149909
 40
0.353474860583331
  0
CIRCLE
  8
_1-3_
  6
CONTINUOUS
 62
    7
 10
260.97999397329909
 20
171.51714989453274
 40
0.353474860583331
  0
CIRCLE
  8
_1-3_
  6
CONTINUOUS
 62
    7
 10
260.06105310047559
 20
170.53257038793612
 40
0.353474860583331
  0
CIRCLE
  8
_1-3_
  6
CONTINUOUS
 62
    7
 10
258.81391905878655
 20
169.35107498002017
 40
0.353474860583331
  0
CIRCLE
  8
_1-3_
  6
CONTINUOUS
 62
    7
 10
259.60158266406381
 20
172.56736803490247
 40
0.353474860583331
  0
CIRCLE
  8
_1-3_
  6
CONTINUOUS
 62
    7
 10
259.60158266406381
 20
173.48630890772597
 40
0.353474860583331
  0
CIRCLE
  8
_1-3_
  6
CONTINUOUS
 62
    7
 10
262.55532118385366
 20
171.32023399321341
 40
0.353474860583331
  0
CIRCLE
  8
_1-3_
  6
CONTINUOUS
 62
    7
 10
263.21170752158474
 20
170.40129312038991
 40
0.353474860583331
  0
CIRCLE
  8
_1-3_
  6
CONTINUOUS
 62
    7
 10
264.59011883082002
 20
171.25459535944032
 40
0.353474860583331
  0
CIRCLE
  8
_1-3_
  6
CONTINUOUS
 62
    7
 10
265.57469833741663
 20
171.84534306339827
 40
0.353474860583331
  0
CIRCLE
  8
_1-3_
  6
CONTINUOUS
 62
    7
 10
266.42800057646707
 20
172.37045213358314
 40
0.353474860583331
  0
CIRCLE
  8
_1-3_
  6
CONTINUOUS
 62
    7
 10
267.54385735060987
 20
173.61758617527218
 40
0.353474860583331
  0
CIRCLE
  8
_1-3_
  6
CONTINUOUS
 62
    7
 10
267.15002554797121
 20
175.71802245601162
 40
0.353474860583331
  0
CIRCLE
  8
_1-3_
  6
CONTINUOUS
 62
    7
 10
265.96853014005529
 20
178.86867687712081
 40
0.353474860583331
  0
CIRCLE
  8
_1-3_
  6
CONTINUOUS
 62
    7
 10
264.85267336591244
 20
179.65634048239809
 40
0.353474860583331
  0
CIRCLE
  8
_1-3_
  6
CONTINUOUS
 62
    7
 10
263.99937112686206
 20
179.590701848625
 40
0.353474860583331
  0
CIRCLE
  8
_1-3_
  6
CONTINUOUS
 62
    7
 10
262.35840528253436
 20
179.19687004598634
 40
0.353474860583331
  0
CIRCLE
  8
_1-3_
  6
CONTINUOUS
 62
    7
 10
266.75619374533255
 20
179.45942458107879
 40
0.353474860583331
  0
CIRCLE
  8
_1-3_
  6
CONTINUOUS
 62
    7
 10
267.47821871683675
 20
180.24708818635608
 40
0.353474860583331
  0
CIRCLE
  8
_1-3_
  6
CONTINUOUS
 62
    7
 10
268.65971412475272
 20
181.16602905917958
 40
0.353474860583331
  0
CIRCLE
  8
_1-3_
  6
CONTINUOUS
 62
    7
 10
272.72930941868538
 20
181.03475179163337
 40
0.353474860583331
  0
CIRCLE
  8
_1-3_
  6
CONTINUOUS
 62
    7
 10
273.38569575641645
 20
182.47880173464173
 40
0.353474860583331
  0
CIRCLE
  8
_1-3_
  6
CONTINUOUS
 62
    7
 10
272.26983898227365
 20
176.83387923015448
 40
0.353474860583331
  0
CIRCLE
  8
_1-3_
  6
CONTINUOUS
 62
    7
 10
269.77557089889552
 20
177.49026556788556
 40
0.353474860583331
  0
CIRCLE
  8
_1-3_
  6
CONTINUOUS
 62
    7
 10
271.08834357435768
 20
172.43609076735623
 40
0.353474860583331
  0
CIRCLE
  8
_1-3_
  6
CONTINUOUS
 62
    7
 10
272.79494805245849
 20
170.99204082434787
 40
0.353474860583331
  0
CIRCLE
  8
_1-3_
  6
CONTINUOUS
 62
    7
 10
273.45133439018957
 20
169.35107498002017
 40
0.353474860583331
  0
CIRCLE
  8
_1-3_
  6
CONTINUOUS
 62
    7
 10
274.23899799546689
 20
169.21979771247396
 40
0.353474860583331
  0
CIRCLE
  8
_1-3_
  6
CONTINUOUS
 62
    7
 10
275.42049340338281
 20
172.10789759849069
 40
0.353474860583331
  0
CIRCLE
  8
_1-3_
  6
CONTINUOUS
 62
    7
 10
275.09230023451727
 20
173.22375437263355
 40
0.353474860583331
  0
CIRCLE
  8
_1-3_
  6
CONTINUOUS
 62
    7
 10
275.02666160074415
 20
175.25855201959988
 40
0.353474860583331
  0
CIRCLE
  8
_1-3_
  6
CONTINUOUS
 62
    7
 10
270.9570663068115
 20
174.07705661168393
 40
0.353474860583331
  0
CIRCLE
  8
_1-3_
  6
CONTINUOUS
 62
    7
 10
269.11918456116445
 20
175.06163611828055
 40
0.353474860583331
  0
CIRCLE
  8
_1-3_
  6
CONTINUOUS
 62
    7
 10
268.46279822343337
 20
177.8184587367511
 40
0.353474860583331
  0
CIRCLE
  8
_1-3_
  6
CONTINUOUS
 62
    7
 10
260.12669173424871
 20
168.56341137474288
 40
0.353474860583331
  0
CIRCLE
  8
_1-3_
  6
CONTINUOUS
 62
    7
 10
258.94519632633273
 20
168.30085683965046
 40
0.353474860583331
  0
CIRCLE
  8
_1-3_
  6
CONTINUOUS
 62
    7
 10
258.81391905878655
 20
170.53257038793612
 40
0.353474860583331
  0
CIRCLE
  8
_1-3_
  6
CONTINUOUS
 62
    7
 10
259.20775086142521
 20
172.69864530244868
 40
0.353474860583331
  0
CIRCLE
  8
_1-3_
  6
CONTINUOUS
 62
    7
 10
259.14211222765209
 20
173.94577934413772
 40
0.353474860583331
  0
CIRCLE
  8
_1-3_
  6
CONTINUOUS
 62
    7
 10
259.20775086142521
 20
175.98057699110407
 40
0.353474860583331
  0
CIRCLE
  8
_1-3_
  6
CONTINUOUS
 62
    7
 10
260.32360763556801
 20
178.40920644070906
 40
0.353474860583331
  0
CIRCLE
  8
_1-3_
  6
CONTINUOUS
 62
    7
 10
260.78307807197979
 20
173.81450207659151
 40
0.353474860583331
  0
CIRCLE
  8
_1-3_
  6
CONTINUOUS
 62
    7
 10
261.70201894480329
 20
171.51714989453274
 40
0.353474860583331
  0
CIRCLE
  8
_1-3_
  6
CONTINUOUS
 62
    7
 10
261.7676575785764
 20
170.53257038793612
 40
0.353474860583331
  0
CIRCLE
  8
_1-3_
  6
CONTINUOUS
 62
    7
 10
263.34298478913098
 20
172.10789759849069
 40
0.353474860583331
  0
CIRCLE
  8
_1-3_
  6
CONTINUOUS
 62
    7
 10
264.19628702818136
 20
173.09247710508731
 40
0.353474860583331
  0
CIRCLE
  8
_1-3_
  6
CONTINUOUS
 62
    7
 10
265.64033697118975
 20
173.55194754149909
 40
0.353474860583331
  0
CIRCLE
  8
_1-3_
  6
CONTINUOUS
 62
    7
 10
262.8835143527192
 20
176.24313152619649
 40
0.353474860583331
  0
CIRCLE
  8
_1-3_
  6
CONTINUOUS
 62
    7
 10
265.0495892672318
 20
177.68718146920486
 40
0.353474860583331
  0
CIRCLE
  8
_1-3_
  6
CONTINUOUS
 62
    7
 10
266.03416877382841
 20
177.35898830033932
 40
0.353474860583331
  0
CIRCLE
  8
_1-3_
  6
CONTINUOUS
 62
    7
 10
267.93768915324853
 20
171.45151126075962
 40
0.353474860583331
  0
CIRCLE
  8
_1-3_
  6
CONTINUOUS
 62
    7
 10
266.82183237910567
 20
170.86076355680166
 40
0.353474860583331
  0
CIRCLE
  8
_1-3_
  6
CONTINUOUS
 62
    7
 10
268.26588232211407
 20
172.9611998375411
 40
0.353474860583331
  0
CIRCLE
  8
_1-3_
  6
CONTINUOUS
 62
    7
 10
269.64429363134934
 20
173.48630890772597
 40
0.353474860583331
  0
CIRCLE
  8
_1-3_
  6
CONTINUOUS
 62
    7
 10
270.89142767303838
 20
174.47088841432259
 40
0.353474860583331
  0
CIRCLE
  8
_1-3_
  6
CONTINUOUS
 62
    7
 10
273.25441848887027
 20
173.42067027395285
 40
0.353474860583331
  0
CIRCLE
  8
_1-3_
  6
CONTINUOUS
 62
    7
 10
274.30463662924001
 20
171.91098169717139
 40
0.353474860583331
  0
CIRCLE
  8
_1-3_
  6
CONTINUOUS
 62
    7
 10
272.72930941868538
 20
175.52110655469232
 40
0.353474860583331
  0
CIRCLE
  8
_1-3_
  6
CONTINUOUS
 62
    7
 10
270.69451177171902
 20
171.51714989453274
 40
0.353474860583331
  0
CIRCLE
  8
_1-3_
  6
CONTINUOUS
 62
    7
 10
270.69451177171902
 20
170.00746131775125
 40
0.353474860583331
  0
CIRCLE
  8
_1-3_
  6
CONTINUOUS
 62
    7
 10
273.58261165773581
 20
177.94973600429731
 40
0.353474860583331
  0
CIRCLE
  8
_1-3_
  6
CONTINUOUS
 62
    7
 10
270.49759587039972
 20
179.32814731353255
 40
0.353474860583331
  0
CIRCLE
  8
_1-3_
  6
CONTINUOUS
 62
    7
 10
268.98790729361826
 20
178.93431551089392
 40
0.353474860583331
  0
CIRCLE
  8
_1-3_
  6
CONTINUOUS
 62
    7
 10
266.29672330892083
 20
180.44400408767541
 40
0.353474860583331
  0
CIRCLE
  8
_1-3_
  6
CONTINUOUS
 62
    7
 10
269.38173909625687
 20
180.18144955258296
 40
0.353474860583331
  0
CIRCLE
  8
_1-3_
  6
CONTINUOUS
 62
    7
 10
271.41653674322322
 20
180.57528135522162
 40
0.353474860583331
  0
CIRCLE
  8
_1-3_
  6
CONTINUOUS
 62
    7
 10
273.38569575641645
 20
182.47880173464173
 40
0.353474860583331
  0
CIRCLE
  8
_1-3_
  6
CONTINUOUS
 62
    7
 10
272.92622532000473
 20
184.18540621274255
 40
0.353474860583331
  0
CIRCLE
  8
_1-3_
  6
CONTINUOUS
 62
    7
 10
272.72930941868538
 20
184.71051528292742
 40
0.353474860583331
  0
CIRCLE
  8
_1-3_
  6
CONTINUOUS
 62
    7
 10
274.23899799546689
 20
185.30126298688538
 40
0.353474860583331
  0
CIRCLE
  8
_1-3_
  6
CONTINUOUS
 62
    7
 10
274.69846843187861
 20
184.6448766491543
 40
0.353474860583331
  0
CIRCLE
  8
_1-3_
  6
CONTINUOUS
 62
    7
 10
275.09230023451727
 20
182.28188583332241
 40
0.353474860583331
  0
CIRCLE
  8
_1-3_
  6
CONTINUOUS
 62
    7
 10
274.17335936169377
 20
180.11581091880987
 40
0.353474860583331
  0
CIRCLE
  8
_1-3_
  6
CONTINUOUS
 62
    7
 10
275.09230023451727
 20
179.32814731353255
 40
0.353474860583331
  0
CIRCLE
  8
_1-3_
  6
CONTINUOUS
 62
    7
 10
275.35485476960969
 20
178.0153746380704
 40
0.353474860583331
  0
CIRCLE
  8
_1-3_
  6
CONTINUOUS
 62
    7
 10
275.02666160074415
 20
174.66780431564192
 40
0.353474860583331
  0
CIRCLE
  8
_1-3_
  6
CONTINUOUS
 62
    7
 10
273.38569575641645
 20
174.99599748450746
 40
0.353474860583331
  0
CIRCLE
  8
_1-3_
  6
CONTINUOUS
 62
    7
 10
271.1539822081308
 20
175.78366108978474
 40
0.353474860583331
  0
CIRCLE
  8
_1-3_
  6
CONTINUOUS
 62
    7
 10
271.08834357435768
 20
174.6021656818688
 40
0.353474860583331
  0
CIRCLE
  8
_1-3_
  6
CONTINUOUS
 62
    7
 10
266.36236194269395
 20
174.99599748450746
 40
0.353474860583331
  0
CIRCLE
  8
_1-3_
  6
CONTINUOUS
 62
    7
 10
264.98395063345868
 20
174.40524978054947
 40
0.353474860583331
  0
CIRCLE
  8
_1-3_
  6
CONTINUOUS
 62
    7
 10
261.70201894480329
 20
174.20833387923017
 40
0.353474860583331
  0
CIRCLE
  8
_1-3_
  6
CONTINUOUS
 62
    7
 10
260.91435533952597
 20
172.56736803490247
 40
0.353474860583331
  0
CIRCLE
  8
_1-3_
  6
CONTINUOUS
 62
    7
 10
259.53594403029069
 20
171.25459535944032
 40
0.353474860583331
  0
CIRCLE
  8
_1-3_
  6
CONTINUOUS
 62
    7
 10
259.53594403029069
 20
174.47088841432259
 40
0.353474860583331
  0
CIRCLE
  8
_1-3_
  6
CONTINUOUS
 62
    7
 10
274.56719116433243
 20
169.67926814888571
 40
0.353474860583331
  0
CIRCLE
  8
_1-3_
  6
CONTINUOUS
 62
    7
 10
271.94164581340812
 20
173.15811573886043
 40
0.353474860583331
  0
CIRCLE
  8
_1-3_
  6
CONTINUOUS
 62
    7
 10
273.25441848887027
 20
172.0422589647176
 40
0.353474860583331
  0
CIRCLE
  8
_1-3_
  6
CONTINUOUS
 62
    7
 10
272.99186395377785
 20
171.12331809189408
 40
0.353474860583331
  0
CIRCLE
  8
_1-3_
  6
CONTINUOUS
 62
    7
 10
271.48217537699634
 20
169.81054541643192
 40
0.353474860583331
  0
CIRCLE
  8
_1-3_
  6
CONTINUOUS
 62
    7
 10
270.49759587039972
 20
175.84929972355786
 40
0.353474860583331
  0
CIRCLE
  8
_1-3_
  6
CONTINUOUS
 62
    7
 10
271.3508981094501
 20
174.47088841432259
 40
0.353474860583331
  0
CIRCLE
  8
_1-3_
  6
CONTINUOUS
 62
    7
 10
268.85663002607203
 20
175.12727475205367
 40
0.353474860583331
  0
CIRCLE
  8
_1-3_
  6
CONTINUOUS
 62
    7
 10
269.57865499757622
 20
176.96515649770069
 40
0.353474860583331
  0
CIRCLE
  8
_1-3_
  6
CONTINUOUS
 62
    7
 10
269.97248680021488
 20
175.58674518846541
 40
0.353474860583331
  0
CIRCLE
  8
_1-3_
  6
CONTINUOUS
 62
    7
 10
270.82578903926526
 20
174.20833387923017
 40
0.353474860583331
  0
CIRCLE
  8
_1-3_
  6
CONTINUOUS
 62
    7
 10
268.33152095588719
 20
174.86472021696125
 40
0.353474860583331
  0
CIRCLE
  8
_1-3_
  6
CONTINUOUS
 62
    7
 10
269.05354592739138
 20
176.70260196260824
 40
0.353474860583331
  0
CIRCLE
  8
_1-3_
  6
CONTINUOUS
 62
    7
 10
267.67513461815611
 20
176.57132469506203
 40
0.353474860583331
  0
CIRCLE
  8
_1-3_
  6
CONTINUOUS
 62
    7
 10
268.52843685720649
 20
175.19291338582678
 40
0.353474860583331
  0
CIRCLE
  8
_1-3_
  6
CONTINUOUS
 62
    7
 10
266.03416877382841
 20
175.84929972355786
 40
0.353474860583331
  0
CIRCLE
  8
_1-3_
  6
CONTINUOUS
 62
    7
 10
266.75619374533255
 20
177.68718146920486
 40
0.353474860583331
  0
CIRCLE
  8
_1-3_
  6
CONTINUOUS
 62
    7
 10
266.95310964665191
 20
176.63696332883515
 40
0.353474860583331
  0
CIRCLE
  8
_1-3_
  6
CONTINUOUS
 62
    7
 10
267.80641188570229
 20
175.25855201959988
 40
0.353474860583331
  0
CIRCLE
  8
_1-3_
  6
CONTINUOUS
 62
    7
 10
265.31214380232421
 20
175.91493835733095
 40
0.353474860583331
  0
CIRCLE
  8
_1-3_
  6
CONTINUOUS
 62
    7
 10
266.03416877382841
 20
177.75282010297798
 40
0.353474860583331
  0
CIRCLE
  8
_1-3_
  6
CONTINUOUS
 62
    7
 10
268.26588232211407
 20
176.76824059638136
 40
0.353474860583331
  0
CIRCLE
  8
_1-3_
  6
CONTINUOUS
 62
    7
 10
269.11918456116445
 20
175.38982928714609
 40
0.353474860583331
  0
CIRCLE
  8
_1-3_
  6
CONTINUOUS
 62
    7
 10
266.62491647778637
 20
176.04621562487716
 40
0.353474860583331
  0
CIRCLE
  8
_1-3_
  6
CONTINUOUS
 62
    7
 10
267.34694144929057
 20
177.88409737052419
 40
0.353474860583331
  0
CIRCLE
  8
_1-3_
  6
CONTINUOUS
 62
    7
 10
273.58261165773581
 20
177.55590420165865
 40
0.353474860583331
  0
CIRCLE
  8
_1-3_
  6
CONTINUOUS
 62
    7
 10
274.43591389678619
 20
176.1774928924234
 40
0.353474860583331
  0
CIRCLE
  8
_1-3_
  6
CONTINUOUS
 62
    7
 10
271.94164581340812
 20
176.83387923015448
 40
0.353474860583331
  0
CIRCLE
  8
_1-3_
  6
CONTINUOUS
 62
    7
 10
272.66367078491226
 20
178.67176097580148
 40
0.353474860583331
  0
CIRCLE
  8
_1-3_
  6
CONTINUOUS
 62
    7
 10
265.96853014005529
 20
174.01141797791084
 40
0.353474860583331
  0
CIRCLE
  8
_1-3_
  6
CONTINUOUS
 62
    7
 10
266.82183237910567
 20
172.63300666867556
 40
0.353474860583331
  0
CIRCLE
  8
_1-3_
  6
CONTINUOUS
 62
    7
 10
264.3275642957276
 20
173.28939300640664
 40
0.353474860583331
  0
CIRCLE
  8
_1-3_
  6
CONTINUOUS
 62
    7
 10
265.0495892672318
 20
175.12727475205367
 40
0.353474860583331
  0
LINE
  8
_1-3_
  6
CONTINUOUS
 62
    7
 10
238.66678109972011
 20
194.54173299630955
 11
247.83317728866311
 21
169.35724918975356
  0
LINE
  8
_1-3_
  6
CONTINUOUS
 62
    7
 10
247.83317728866311
 20
169.35724918975356
 11
260.67001532491611
 21
174.02947293503269
  0
LINE
  8
_1-3_
  6
CONTINUOUS
 62
    7
 10
238.66678109972011
 20
194.54173299630955
 11
235.88539345129166
 21
194.54173299630955
  0
TEXT
  8
_1-0_
 62
    7
 10
200.33200351051079
 20
193.09057422321644
 40
3
 41
1
 50
0
  1
モルタル又は面戸漆喰
  0
ENDSEC
  0
EOF
