  0
SECTION
  2
HEADER
  9
$ACADVER
  1
AC1009
  9
$INSBASE
 10
0
 20
0
 30
0
  9
$EXTMIN
 10
0
 20
0
  9
$EXTMAX
 10
420
 20
297
  9
$LIMMIN
 10
0
 20
0
  9
$LIMMAX
 10
420
 20
297
  9
$LTSCALE
 40
1
  0
ENDSEC
  0
SECTION
  2
TABLES
  0
TABLE
  2
LTYPE
 70
     9
  0
LTYPE
  2
CONTINUOUS
 70
    64
  3
実線
 72
    65
 73
     0
 40
0.0
  0
LTYPE
  2
DASHED1
 70
    64
  3
--  --  --  --  --  --  --  --  
 72
    65
 73
     2
 40
2.5
 49
1.25
 49
-1.25
  0
LTYPE
  2
DASHED2
 70
    64
  3
----    ----    ----    ----    
 72
    65
 73
     2
 40
5.0
 49
2.5
 49
-2.5
  0
LTYPE
  2
DASHED3
 70
    64
  3
------  ------  ------  ------  
 72
    65
 73
     2
 40
5.0
 49
3.75
 49
-1.25
  0
LTYPE
  2
CENTER1
 70
    64
  3
----- - ----- - ----- - ----- - 
 72
    65
 73
     4
 40
10.0
 49
6.25
 49
-1.25
 49
1.25
 49
-1.25
  0
LTYPE
  2
CENTER2
 70
    64
  3
----------  --  ----------  --  
 72
    65
 73
     4
 40
20.0
 49
12.5
 49
-2.5
 49
2.5
 49
-2.5
  0
LTYPE
  2
PHANTOM1
 70
    64
  3
--- - - --- - - --- - - --- - - 
 72
    65
 73
     6
 40
10.0
 49
3.25
 49
-1.25
 49
1.25
 49
-1.25
 49
1.25
 49
-1.25
  0
LTYPE
  2
PHANTOM2
 70
    64
  3
--------  -  -  --------  -  -  
 72
    65
 73
     6
 40
20.0
 49
10.0
 49
-2.5
 49
1.25
 49
-2.5
 49
1.25
 49
-2.5
  0
LTYPE
  2
DOT
 70
    64
  3
-   -   -   -   -   -   -   -   
 72
    65
 73
     2
 40
2.5
 49
0.625
 49
-1.875
  0
LTYPE
  2
DUMMY
 70
    64
  3
ダミー
 72
    65
 73
     0
 40
0.0
  0
LTYPE
  2
RAND1
 70
    64
  3
ランダム線1
 72
    65
 73
     4
 40
10.0
 49
1.0
 49
-2.0
 49
3.0
 49
-4.0
  0
LTYPE
  2
RAND2
 70
    64
  3
ランダム線2
 72
    65
 73
     4
 40
14.0
 49
2.0
 49
-3.0
 49
4.0
 49
-5.0
  0
LTYPE
  2
RAND3
 70
    64
  3
ランダム線3
 72
    65
 73
     4
 40
18.0
 49
3.0
 49
-4.0
 49
5.0
 49
-6.0
  0
LTYPE
  2
RAND4
 70
    64
  3
ランダム線4
 72
    65
 73
     4
 40
22.0
 49
4.0
 49
-5.0
 49
6.0
 49
-7.0
  0
LTYPE
  2
RAND5
 70
    64
  3
ランダム線5
 72
    65
 73
     4
 40
26.0
 49
5.0
 49
-6.0
 49
7.0
 49
-8.0
  0
LTYPE
  2
LONG1
 70
    64
  3
----------  --  ----------  --  
 72
    65
 73
     4
 40
40.0
 49
32.5
 49
-2.5
 49
2.5
 49
-2.5
  0
LTYPE
  2
LONG2
 70
    64
  3
--------  -  -  --------  -  -  
 72
    65
 73
     6
 40
40.0
 49
30.0
 49
-2.5
 49
1.25
 49
-2.5
 49
1.25
 49
-2.5
  0
LTYPE
  2
LONG3
 70
    64
  3
+++++++++++++++..+++++++++++++++
 72
    65
 73
     2
 40
40.0
 49
37.5
 49
-2.5
  0
LTYPE
  2
LONG4
 70
    64
  3
+++++++++++++++..+++++++++++++++
 72
    65
 73
     2
 40
80.0
 49
75.0
 49
-5.0
  0
LTYPE
  2
LONG5
 70
    64
  3
----------  --  ----------  --  
 72
    65
 73
     4
 40
60.0
 49
37.5
 49
-7.5
 49
7.5
 49
-7.5
  0
LTYPE
  2
dashed
 70
   64
  3
-------   -------------   ------
 72
   65
 73
    2
 40
7.5
 49
6
 49
-1.5
  0
LTYPE
  2
dashed_spaced
 70
   64
  3
----        --------        ----
 72
   65
 73
    2
 40
12
 49
6
 49
-6
  0
LTYPE
  2
long_dashed_dotted
 70
   64
  3
------------- --- --------------
 72
   65
 73
    4
 40
15.25
 49
12
 49
-1.5
 49
0.25
 49
-1.5
  0
LTYPE
  2
long_dashed_double-dotted
 70
   64
  3
----------- --- --- ------------
 72
   65
 73
    6
 40
17
 49
12
 49
-1.5
 49
0.25
 49
-1.5
 49
0.25
 49
-1.5
  0
LTYPE
  2
long_dashed_triplicate-dotted
 70
   64
  3
--------- --- --- --- ----------
 72
   65
 73
    8
 40
18.75
 49
12
 49
-1.5
 49
0.25
 49
-1.5
 49
0.25
 49
-1.5
 49
0.25
 49
-1.5
  0
LTYPE
  2
dotted
 70
   64
  3
   -       -       -       -    
 72
   65
 73
    2
 40
1.75
 49
0.25
 49
-1.5
  0
LTYPE
  2
chain
 70
   64
  3
-------------- -- --------------
 72
   65
 73
    4
 40
18.5
 49
12
 49
-1.5
 49
3.5
 49
-1.5
  0
LTYPE
  2
chain_double_dash
 70
   64
  3
------------ -- -- -------------
 72
   65
 73
    6
 40
23.5
 49
12
 49
-1.5
 49
3.5
 49
-1.5
 49
3.5
 49
-1.5
  0
LTYPE
  2
dashed_dotted
 70
   64
  3
-----------     -     ----------
 72
   65
 73
    4
 40
9.25
 49
6
 49
-1.5
 49
0.25
 49
-1.5
  0
LTYPE
  2
double-dashed_dotted
 70
   64
  3
------   -----------   -   -----
 72
   65
 73
    6
 40
16.75
 49
6
 49
-1.5
 49
6
 49
-1.5
 49
0.25
 49
-1.5
  0
LTYPE
  2
dashed_double-dotted
 70
   64
  3
---------    -    -    ---------
 72
   65
 73
    6
 40
11
 49
6
 49
-1.5
 49
0.25
 49
-1.5
 49
0.25
 49
-1.5
  0
LTYPE
  2
double-dashed_double-dotted
 70
   64
  3
-----   ---------   -   -   ----
 72
   65
 73
    8
 40
18.5
 49
6
 49
-1.5
 49
6
 49
-1.5
 49
0.25
 49
-1.5
 49
0.25
 49
-1.5
  0
LTYPE
  2
dashed_triplicate-dotted
 70
   64
  3
-------    -    -    -    ------
 72
   65
 73
    8
 40
12.75
 49
6
 49
-1.5
 49
0.25
 49
-1.5
 49
0.25
 49
-1.5
 49
0.25
 49
-1.5
  0
LTYPE
  2
double-dashed_triplicate-dotted
 70
   64
  3
-----  ---------  -  -  -  -----
 72
   65
 73
   10
 40
20.25
 49
6
 49
-1.5
 49
6
 49
-1.5
 49
0.25
 49
-1.5
 49
0.25
 49
-1.5
 49
0.25
 49
-1.5
  0
LTYPE
  2
undefined
 70
   64
  3
--------------------------------
 72
   65
 73
    0
 40
0
  0
ENDTAB
  0
TABLE
  2
STYLE
  5
3
100
AcDbSymbolTable
 70
     1
  0
STYLE
  5
10
100
AcDbSymbolTableRecord
100
AcDbTextStyleTableRecord
  2
STANDARD
 70
     0
 40
0.0
 41
1.0
 50
0.0
 71
     0
 42
0.2
  3
txt
  4
bigfont.shx
  0
STYLE
  5
26
100
AcDbSymbolTableRecord
100
AcDbTextStyleTableRecord
  2
TATEGAKI
 70
    68
 40
0.0
 41
1.0
 50
0.0
 71
     0
 42
1.0
  3
txt
  4
bigfont.shx
  0
ENDTAB
  0
TABLE
  2
LAYER
 70
    7
  0
LAYER
  2
_0-0_
 70
   64
 62
    7
  6
CONTINUOUS
  0
LAYER
  2
_1-0_
 70
   64
 62
    7
  6
CONTINUOUS
  0
LAYER
  2
_1-1_
 70
   64
 62
    7
  6
CONTINUOUS
  0
LAYER
  2
_1-2_
 70
   64
 62
    7
  6
CONTINUOUS
  0
LAYER
  2
_1-3_
 70
   64
 62
    7
  6
CONTINUOUS
  0
LAYER
  2
_1-4_
 70
   64
 62
    7
  6
CONTINUOUS
  0
LAYER
  2
ADD_LINE
 70
   64
 62
    7
  6
CONTINUOUS
  0
ENDTAB
  0
ENDSEC
  0
SECTION
  2
BLOCKS
  0
ENDSEC
  0
SECTION
  2
ENTITIES
  0
LINE
  8
_0-0_
  6
CONTINUOUS
 62
    5
 10
6.7567526327597136
 20
280.13513513513516
 11
406.75677325274495
 21
280.13513513513516
  0
LINE
  8
_0-0_
  6
CONTINUOUS
 62
    5
 10
406.75677325274495
 20
10.13513513513513
 11
6.7567526327597136
 21
10.13513513513513
  0
LINE
  8
_0-0_
  6
CONTINUOUS
 62
    5
 10
406.75677325274495
 20
30.135133073136615
 11
6.7567402607685949
 21
30.135133073136615
  0
LINE
  8
_0-0_
  6
CONTINUOUS
 62
    5
 10
371.75678150073907
 20
10.13513513513513
 11
371.75678150073907
 21
30.135133073136615
  0
LINE
  8
_0-0_
  6
CONTINUOUS
 62
    5
 10
137.02703939901818
 20
30.135133073136615
 11
137.02703939901818
 21
10.13513513513513
  0
LINE
  8
_0-0_
  6
CONTINUOUS
 62
    5
 10
214.86486486486487
 20
30.135133073136615
 11
214.86486486486487
 21
10.13513513513513
  0
LINE
  8
_0-0_
  6
CONTINUOUS
 62
    5
 10
137.02703939901818
 20
20.135134104135886
 11
214.86486486486487
 21
20.135134104135886
  0
LINE
  8
_0-0_
  6
CONTINUOUS
 62
    5
 10
396.48648648648651
 20
25.945945945945951
 11
383.91891891891896
 21
13.378379924877265
  0
LINE
  8
_1-3_
  6
CONTINUOUS
 62
    7
 10
126.16404765361065
 20
115.4826272500528
 11
116.01767875052788
 21
143.35950696790542
  0
LINE
  8
_1-3_
  6
CONTINUOUS
 62
    7
 10
116.01767875052788
 20
143.35950696790542
 11
114.74380905563767
 21
143.35950696790542
  0
LINE
  8
_1-1_
  6
CONTINUOUS
 62
    7
 10
235.0468733504012
 20
175.78842575485643
 11
234.06597240551099
 21
178.62351701066302
  0
LINE
  8
_1-1_
  6
CONTINUOUS
 62
    7
 10
234.06597240551099
 20
178.62351701066302
 11
251.07656942831505
 21
184.50903402792443
  0
LINE
  8
_1-1_
  6
CONTINUOUS
 62
    7
 10
251.07656942831505
 20
184.50903402792443
 11
252.0574951171875
 21
181.67393040012669
  0
LINE
  8
_1-1_
  6
CONTINUOUS
 62
    7
 10
252.0574951171875
 20
181.67393040012669
 11
235.0468733504012
 21
175.78842575485643
  0
LINE
  8
_1-1_
  6
CONTINUOUS
 62
    3
 10
233.86099325644005
 20
175.93890628299198
 11
233.99515512827281
 21
177.00518633868245
  0
LINE
  8
_1-1_
  6
CONTINUOUS
 62
    7
 10
249.25528861380914
 20
187.40666569890203
 11
249.25528861380914
 21
259.56340892894849
  0
LINE
  8
_1-1_
  6
CONTINUOUS
 62
    7
 10
246.85529554212417
 20
187.40666569890203
 11
246.85529554212417
 21
259.56340892894849
  0
LINE
  8
_1-1_
  6
CONTINUOUS
 62
    7
 10
246.85529554212417
 20
187.40666569890203
 11
249.25528861380914
 21
187.40666569890203
  0
LINE
  8
_1-1_
  6
CONTINUOUS
 62
    7
 10
249.25528861380914
 20
190.47244510135135
 11
249.25528861380914
 21
198.47244675095018
  0
LINE
  8
_1-1_
  6
CONTINUOUS
 62
    7
 10
249.25528861380914
 20
198.47244675095018
 11
253.25527706661742
 21
198.47244675095018
  0
LINE
  8
_1-1_
  6
CONTINUOUS
 62
    7
 10
253.25527706661742
 20
198.47244675095018
 11
253.25527706661742
 21
190.47244510135135
  0
LINE
  8
_1-1_
  6
CONTINUOUS
 62
    7
 10
253.25527706661742
 20
190.47244510135135
 11
249.25528861380914
 21
190.47244510135135
  0
LINE
  8
_1-1_
  6
CONTINUOUS
 62
    7
 10
249.25528861380914
 20
198.47244675095018
 11
253.25527706661742
 21
190.47244510135135
  0
LINE
  8
_1-1_
  6
CONTINUOUS
 62
    7
 10
243.4772470835093
 20
182.47105778874578
 11
224.97122274862755
 21
233.31593281513938
  0
LINE
  8
_1-1_
  6
CONTINUOUS
 62
    7
 10
247.64012517155828
 20
216.32921373521961
 11
231.83488175675677
 21
259.75373964051943
  0
LINE
  8
_1-1_
  6
CONTINUOUS
 62
    7
 10
225.71091935441302
 20
158.9005588840794
 11
245.76279923722552
 21
165.49077214421453
  0
LINE
  8
_1-1_
  6
CONTINUOUS
 62
    7
 10
231.83488175675677
 20
259.75373964051943
 11
224.59459459459461
 21
259.75373964051943
  0
LINE
  8
_1-1_
  6
CONTINUOUS
 62
    7
 10
224.97122274862755
 20
233.31593281513938
 11
220.54054054054055
 21
233.31593281513938
  0
LINE
  8
_1-1_
  6
CONTINUOUS
 62
    7
 10
218.17125475084461
 20
214.493408203125
 11
213.24324324324326
 21
214.493408203125
  0
LINE
  8
_1-1_
  6
CONTINUOUS
 62
    7
 10
234.06597240551099
 20
178.62351701066302
 11
252.0574951171875
 21
181.67393040012669
  0
LINE
  8
_1-1_
  6
CONTINUOUS
 62
    3
 10
232.70972999366555
 20
178.76479277739654
 11
233.86099325644005
 21
175.93890628299198
  0
LINE
  8
_1-1_
  6
CONTINUOUS
 62
    3
 10
232.70972999366555
 20
178.76479277739654
 11
253.25527706661742
 21
185.87339246595229
  0
LINE
  8
_1-1_
  6
CONTINUOUS
 62
    7
 10
232.1609826990076
 20
176.05692270639781
 11
218.17125475084461
 21
214.493408203125
  0
LINE
  8
_1-1_
  6
CONTINUOUS
 62
    7
 10
232.1609826990076
 20
176.05692270639781
 11
233.75471785261826
 21
176.46928117081927
  0
LINE
  8
_1-1_
  6
CONTINUOUS
 62
    7
 10
243.47103634396117
 20
182.48811876451649
 11
243.89193148226352
 21
181.33170875343117
  0
LINE
  8
_1-1_
  6
CONTINUOUS
 62
    3
 10
253.25527706661742
 20
185.87339246595229
 11
253.25527706661742
 21
215.87338009396117
  0
LINE
  8
_1-1_
  6
CONTINUOUS
 62
    7
 10
266.47658064558703
 20
152.29338362410263
 11
304.23874313766896
 21
152.29338362410263
  0
LINE
  8
_1-1_
  6
CONTINUOUS
 62
    7
 10
284.48485503325594
 20
185.87339246595229
 11
284.48485503325594
 21
215.87338009396117
  0
LINE
  8
_1-1_
  6
CONTINUOUS
 62
    7
 10
266.47658064558703
 20
185.87339246595229
 11
284.48485503325594
 21
185.87339246595229
  0
LINE
  8
_1-1_
  6
CONTINUOUS
 62
    7
 10
266.47658064558703
 20
215.87338009396117
 11
284.48485503325594
 21
215.87338009396117
  0
LINE
  8
_1-1_
  6
CONTINUOUS
 62
    7
 10
214.98695167335305
 20
206.21674408783784
 11
227.7006077122044
 21
171.28620869404563
  0
LINE
  8
_1-1_
  6
CONTINUOUS
 62
    7
 10
227.7006077122044
 20
171.28620869404563
 11
229.7787805505701
 21
171.46770580394849
  0
LINE
  8
_1-1_
  6
CONTINUOUS
 62
    7
 10
214.98695167335305
 20
206.21674408783784
 11
211.93468248521961
 21
206.21674408783784
  0
LINE
  8
_1-1_
  6
CONTINUOUS
 62
    7
 10
254.19552364864867
 20
125.43442184860642
 11
254.19552364864867
 21
259.30763038429058
  0
CIRCLE
  8
_1-1_
  6
CONTINUOUS
 62
    7
 10
244.78509026604732
 20
174.25875277132602
 40
0.0608883012790937
  0
CIRCLE
  8
_1-1_
  6
CONTINUOUS
 62
    7
 10
244.69898120777029
 20
173.78516532279352
 40
0.0608883012790937
  0
CIRCLE
  8
_1-1_
  6
CONTINUOUS
 62
    7
 10
247.23917368296031
 20
173.91431653821792
 40
0.0608883012790937
  0
CIRCLE
  8
_1-1_
  6
CONTINUOUS
 62
    7
 10
248.48775502797722
 20
174.25875277132602
 40
0.0608883012790937
  0
CIRCLE
  8
_1-1_
  6
CONTINUOUS
 62
    7
 10
248.90714078336151
 20
164.18607144742398
 40
0.0608883012790937
  0
CIRCLE
  8
_1-1_
  6
CONTINUOUS
 62
    7
 10
248.10729155669344
 20
163.27195451066302
 40
0.0608883012790937
  0
CIRCLE
  8
_1-1_
  6
CONTINUOUS
 62
    7
 10
246.7361285235431
 20
163.72901297904352
 40
0.0608883012790937
  0
CIRCLE
  8
_1-1_
  6
CONTINUOUS
 62
    7
 10
244.90786990603885
 20
163.38622222075591
 40
0.0608883012790937
  0
CIRCLE
  8
_1-1_
  6
CONTINUOUS
 62
    7
 10
241.59420528927367
 20
160.18680057010135
 40
0.0608883012790937
  0
CIRCLE
  8
_1-1_
  6
CONTINUOUS
 62
    7
 10
240.10874980204815
 20
159.84400981181378
 40
0.0608883012790937
  0
CIRCLE
  8
_1-1_
  6
CONTINUOUS
 62
    7
 10
241.02286673880914
 20
160.98664979676943
 40
0.0608883012790937
  0
CIRCLE
  8
_1-1_
  6
CONTINUOUS
 62
    7
 10
240.33728522223396
 20
161.90077910552154
 40
0.0608883012790937
  0
CIRCLE
  8
_1-1_
  6
CONTINUOUS
 62
    7
 10
240.56582064241977
 20
162.9291513803843
 40
0.0608883012790937
  0
CIRCLE
  8
_1-1_
  6
CONTINUOUS
 62
    7
 10
240.45155293232688
 20
163.95753602723818
 40
0.0608883012790937
  0
CIRCLE
  8
_1-1_
  6
CONTINUOUS
 62
    7
 10
240.22301751214107
 20
165.32872380437078
 40
0.0608883012790937
  0
CIRCLE
  8
_1-1_
  6
CONTINUOUS
 62
    7
 10
239.30890057538008
 20
172.69176586254224
 40
0.0608883012790937
  0
CIRCLE
  8
_1-1_
  6
CONTINUOUS
 62
    7
 10
241.70847299936656
 20
172.92028891073693
 40
0.0608883012790937
  0
CIRCLE
  8
_1-1_
  6
CONTINUOUS
 62
    7
 10
242.05125138566302
 20
165.67151456265836
 40
0.0608883012790937
  0
CIRCLE
  8
_1-1_
  6
CONTINUOUS
 62
    7
 10
242.27978680584883
 20
164.7573976258974
 40
0.0608883012790937
  0
CIRCLE
  8
_1-1_
  6
CONTINUOUS
 62
    7
 10
242.05125138566302
 20
164.07180373733109
 40
0.0608883012790937
  0
CIRCLE
  8
_1-1_
  6
CONTINUOUS
 62
    7
 10
241.59420528927367
 20
162.9291513803843
 40
0.0608883012790937
  0
CIRCLE
  8
_1-1_
  6
CONTINUOUS
 62
    7
 10
243.42243916279563
 20
162.70062833218961
 40
0.0608883012790937
  0
CIRCLE
  8
_1-1_
  6
CONTINUOUS
 62
    7
 10
244.67935922983531
 20
164.41460686760982
 40
0.0608883012790937
  0
CIRCLE
  8
_1-1_
  6
CONTINUOUS
 62
    7
 10
243.99375296927789
 20
172.23469502217063
 40
0.0608883012790937
  0
CIRCLE
  8
_1-1_
  6
CONTINUOUS
 62
    7
 10
250.34946750950169
 20
178.86076231260557
 40
0.0608883012790937
  0
CIRCLE
  8
_1-1_
  6
CONTINUOUS
 62
    7
 10
252.17770138302367
 20
179.20355307089318
 40
0.0608883012790937
  0
CIRCLE
  8
_1-1_
  6
CONTINUOUS
 62
    7
 10
250.006664379223
 20
177.94664537584461
 40
0.0608883012790937
  0
CIRCLE
  8
_1-1_
  6
CONTINUOUS
 62
    7
 10
250.5780029296875
 20
177.03252843908362
 40
0.0608883012790937
  0
CIRCLE
  8
_1-1_
  6
CONTINUOUS
 62
    7
 10
249.93552543021539
 20
176.11969818940034
 40
0.0608883012790937
  0
CIRCLE
  8
_1-1_
  6
CONTINUOUS
 62
    7
 10
248.90714078336151
 20
173.94867355759081
 40
0.0608883012790937
  0
CIRCLE
  8
_1-1_
  6
CONTINUOUS
 62
    7
 10
249.70701475401185
 20
173.14881195893159
 40
0.0608883012790937
  0
CIRCLE
  8
_1-1_
  6
CONTINUOUS
 62
    7
 10
247.19317461993245
 20
164.07180373733109
 40
0.0608883012790937
  0
CIRCLE
  8
_1-1_
  6
CONTINUOUS
 62
    7
 10
247.65024546030406
 20
165.32872380437078
 40
0.0608883012790937
  0
CIRCLE
  8
_1-1_
  6
CONTINUOUS
 62
    7
 10
247.76451317039698
 20
164.64312991580448
 40
0.0608883012790937
  0
CIRCLE
  8
_1-1_
  6
CONTINUOUS
 62
    7
 10
247.53597775021117
 20
162.01503444362331
 40
0.0608883012790937
  0
CIRCLE
  8
_1-1_
  6
CONTINUOUS
 62
    7
 10
247.07890690983953
 20
161.44372063714107
 40
0.0608883012790937
  0
CIRCLE
  8
_1-1_
  6
CONTINUOUS
 62
    7
 10
247.19317461993245
 20
159.72974210172086
 40
0.0608883012790937
  0
CIRCLE
  8
_1-1_
  6
CONTINUOUS
 62
    7
 10
246.50759310335727
 20
160.07253286000847
 40
0.0608883012790937
  0
CIRCLE
  8
_1-1_
  6
CONTINUOUS
 62
    7
 10
244.2222883894637
 20
160.30106828019427
 40
0.0608883012790937
  0
CIRCLE
  8
_1-1_
  6
CONTINUOUS
 62
    7
 10
242.85110061233109
 20
160.07253286000847
 40
0.0608883012790937
  0
CIRCLE
  8
_1-1_
  6
CONTINUOUS
 62
    7
 10
240.04166886613177
 20
162.57563410578547
 40
0.0608883012790937
  0
CIRCLE
  8
_1-1_
  6
CONTINUOUS
 62
    7
 10
239.60300754856419
 20
162.54188331397805
 40
0.0608883012790937
  0
CIRCLE
  8
_1-1_
  6
CONTINUOUS
 62
    7
 10
239.70423518000425
 20
163.31796594568203
 40
0.0608883012790937
  0
CIRCLE
  8
_1-1_
  6
CONTINUOUS
 62
    7
 10
239.60300754856419
 20
163.68913805162586
 40
0.0608883012790937
  0
CIRCLE
  8
_1-1_
  6
CONTINUOUS
 62
    7
 10
239.53550596494935
 20
164.12778699720229
 40
0.0608883012790937
  0
CIRCLE
  8
_1-1_
  6
CONTINUOUS
 62
    7
 10
239.53550596494935
 20
164.7014143660262
 40
0.0608883012790937
  0
CIRCLE
  8
_1-1_
  6
CONTINUOUS
 62
    7
 10
239.6704843881968
 20
165.17381410341005
 40
0.0608883012790937
  0
CIRCLE
  8
_1-1_
  6
CONTINUOUS
 62
    7
 10
239.83921360325169
 20
163.72287647144216
 40
0.0608883012790937
  0
CIRCLE
  8
_1-1_
  6
CONTINUOUS
 62
    7
 10
240.17662254539698
 20
162.50814489416175
 40
0.0608883012790937
  0
CIRCLE
  8
_1-1_
  6
CONTINUOUS
 62
    7
 10
240.04166886613177
 20
162.00200673696159
 40
0.0608883012790937
  0
CIRCLE
  8
_1-1_
  6
CONTINUOUS
 62
    7
 10
239.83921360325169
 20
161.49586857976141
 40
0.0608883012790937
  0
CIRCLE
  8
_1-1_
  6
CONTINUOUS
 62
    7
 10
239.77171201963685
 20
161.25966252507391
 40
0.0608883012790937
  0
CIRCLE
  8
_1-1_
  6
CONTINUOUS
 62
    7
 10
239.56925675675677
 20
160.6522967364337
 40
0.0608883012790937
  0
CIRCLE
  8
_1-1_
  6
CONTINUOUS
 62
    7
 10
239.6704843881968
 20
160.07866936760982
 40
0.0608883012790937
  0
CIRCLE
  8
_1-1_
  6
CONTINUOUS
 62
    7
 10
239.50177991712417
 20
159.1338822648332
 40
0.0608883012790937
  0
CIRCLE
  8
_1-1_
  6
CONTINUOUS
 62
    7
 10
239.87293965107688
 20
158.49276568438557
 40
0.0608883012790937
  0
CIRCLE
  8
_1-1_
  6
CONTINUOUS
 62
    7
 10
239.80546281144427
 20
158.35779963312922
 40
0.0608883012790937
  0
CIRCLE
  8
_1-1_
  6
CONTINUOUS
 62
    7
 10
240.85148991765203
 20
158.66148252744932
 40
0.0608883012790937
  0
CIRCLE
  8
_1-1_
  6
CONTINUOUS
 62
    7
 10
241.39135412267737
 20
159.1001438450169
 40
0.0608883012790937
  0
CIRCLE
  8
_1-1_
  6
CONTINUOUS
 62
    7
 10
240.88521596547722
 20
159.50505437077703
 40
0.0608883012790937
  0
CIRCLE
  8
_1-1_
  6
CONTINUOUS
 62
    7
 10
241.52633254592484
 20
160.21364779085727
 40
0.0608883012790937
  0
CIRCLE
  8
_1-1_
  6
CONTINUOUS
 62
    7
 10
243.14597464896539
 20
160.01119252797722
 40
0.0608883012790937
  0
CIRCLE
  8
_1-1_
  6
CONTINUOUS
 62
    7
 10
243.34842991184544
 20
159.70750963365711
 40
0.0608883012790937
  0
CIRCLE
  8
_1-1_
  6
CONTINUOUS
 62
    7
 10
242.06622149493245
 20
161.42837936813768
 40
0.0608883012790937
  0
CIRCLE
  8
_1-1_
  6
CONTINUOUS
 62
    7
 10
242.74106412320526
 20
162.13697278821792
 40
0.0608883012790937
  0
CIRCLE
  8
_1-1_
  6
CONTINUOUS
 62
    7
 10
242.23492596600508
 20
162.44065568253802
 40
0.0608883012790937
  0
CIRCLE
  8
_1-1_
  6
CONTINUOUS
 62
    7
 10
242.90979333826016
 20
163.18299989442568
 40
0.0608883012790937
  0
CIRCLE
  8
_1-1_
  6
CONTINUOUS
 62
    7
 10
243.01102096970018
 20
163.58791042018581
 40
0.0608883012790937
  0
CIRCLE
  8
_1-1_
  6
CONTINUOUS
 62
    7
 10
242.3361535974451
 20
164.46522068332982
 40
0.0608883012790937
  0
CIRCLE
  8
_1-1_
  6
CONTINUOUS
 62
    7
 10
241.35762807485222
 20
164.76890357764992
 40
0.0608883012790937
  0
CIRCLE
  8
_1-1_
  6
CONTINUOUS
 62
    7
 10
240.88521596547722
 20
165.37626936629013
 40
0.0608883012790937
  0
CIRCLE
  8
_1-1_
  6
CONTINUOUS
 62
    7
 10
240.37907780827703
 20
172.8919199350718
 40
0.0608883012790937
  0
CIRCLE
  8
_1-1_
  6
CONTINUOUS
 62
    7
 10
245.01293285472974
 20
165.70219710066513
 40
0.0608883012790937
  0
CIRCLE
  8
_1-1_
  6
CONTINUOUS
 62
    7
 10
244.78439743454393
 20
165.01660321209883
 40
0.0608883012790937
  0
CIRCLE
  8
_1-1_
  6
CONTINUOUS
 62
    7
 10
244.32735133815459
 20
163.87395085515203
 40
0.0608883012790937
  0
CIRCLE
  8
_1-1_
  6
CONTINUOUS
 62
    7
 10
245.64293938714107
 20
164.12779936919341
 40
0.0608883012790937
  0
CIRCLE
  8
_1-1_
  6
CONTINUOUS
 62
    7
 10
245.74416701858109
 20
164.53270989495357
 40
0.0608883012790937
  0
CIRCLE
  8
_1-1_
  6
CONTINUOUS
 62
    7
 10
245.06929964632602
 20
165.41002015809755
 40
0.0608883012790937
  0
CIRCLE
  8
_1-1_
  6
CONTINUOUS
 62
    7
 10
244.09077412373313
 20
165.71370305241766
 40
0.0608883012790937
  0
CIRCLE
  8
_1-1_
  6
CONTINUOUS
 62
    7
 10
246.26141522381758
 20
172.23930977486276
 40
0.0608883012790937
  0
CIRCLE
  8
_1-1_
  6
CONTINUOUS
 62
    7
 10
246.03287980363177
 20
165.21905847497891
 40
0.0608883012790937
  0
CIRCLE
  8
_1-1_
  6
CONTINUOUS
 62
    7
 10
245.57583370724242
 20
164.07640611803211
 40
0.0608883012790937
  0
CIRCLE
  8
_1-1_
  6
CONTINUOUS
 62
    7
 10
246.89142175622891
 20
164.33025463207349
 40
0.0608883012790937
  0
CIRCLE
  8
_1-1_
  6
CONTINUOUS
 62
    7
 10
246.99264938766893
 20
164.73516515783362
 40
0.0608883012790937
  0
CIRCLE
  8
_1-1_
  6
CONTINUOUS
 62
    7
 10
246.31778201541385
 20
165.61247542097763
 40
0.0608883012790937
  0
CIRCLE
  8
_1-1_
  6
CONTINUOUS
 62
    7
 10
245.33925649282097
 20
172.25081572661529
 40
0.0608883012790937
  0
CIRCLE
  8
_1-1_
  6
CONTINUOUS
 62
    7
 10
247.74607890361065
 20
172.40801424593539
 40
0.0608883012790937
  0
CIRCLE
  8
_1-1_
  6
CONTINUOUS
 62
    7
 10
247.51754348342484
 20
165.38776294605154
 40
0.0608883012790937
  0
CIRCLE
  8
_1-1_
  6
CONTINUOUS
 62
    7
 10
247.0604973870355
 20
164.24511058910474
 40
0.0608883012790937
  0
CIRCLE
  8
_1-1_
  6
CONTINUOUS
 62
    7
 10
248.37608543602198
 20
164.49895910314612
 40
0.0608883012790937
  0
CIRCLE
  8
_1-1_
  6
CONTINUOUS
 62
    7
 10
248.47731306746201
 20
164.90386962890625
 40
0.0608883012790937
  0
CIRCLE
  8
_1-1_
  6
CONTINUOUS
 62
    7
 10
247.80244569520693
 20
165.78117989205026
 40
0.0608883012790937
  0
CIRCLE
  8
_1-1_
  6
CONTINUOUS
 62
    7
 10
246.82392017261404
 20
172.41952019768794
 40
0.0608883012790937
  0
CIRCLE
  8
_1-1_
  6
CONTINUOUS
 62
    7
 10
243.9331797006968
 20
174.26386240366344
 40
0.0608883012790937
  0
CIRCLE
  8
_1-1_
  6
CONTINUOUS
 62
    7
 10
243.70464428051099
 20
173.57826851509714
 40
0.0608883012790937
  0
CIRCLE
  8
_1-1_
  6
CONTINUOUS
 62
    7
 10
243.24759818412164
 20
172.43561615815034
 40
0.0608883012790937
  0
CIRCLE
  8
_1-1_
  6
CONTINUOUS
 62
    7
 10
244.56318623310813
 20
172.68946467219172
 40
0.0608883012790937
  0
CIRCLE
  8
_1-1_
  6
CONTINUOUS
 62
    7
 10
244.66441386454815
 20
173.09437519795188
 40
0.0608883012790937
  0
CIRCLE
  8
_1-1_
  6
CONTINUOUS
 62
    7
 10
243.9895464922931
 20
173.97168546109586
 40
0.0608883012790937
  0
CIRCLE
  8
_1-1_
  6
CONTINUOUS
 62
    7
 10
243.01102096970018
 20
174.27536835541596
 40
0.0608883012790937
  0
CIRCLE
  8
_1-1_
  6
CONTINUOUS
 62
    7
 10
248.48102466480154
 20
161.55086208034206
 40
0.0608883012790937
  0
CIRCLE
  8
_1-1_
  6
CONTINUOUS
 62
    7
 10
248.25248924461573
 20
160.86526819177578
 40
0.0608883012790937
  0
CIRCLE
  8
_1-1_
  6
CONTINUOUS
 62
    7
 10
247.79544314822635
 20
159.72261583482899
 40
0.0608883012790937
  0
CIRCLE
  8
_1-1_
  6
CONTINUOUS
 62
    7
 10
249.11103119721284
 20
159.97646434887037
 40
0.0608883012790937
  0
CIRCLE
  8
_1-1_
  6
CONTINUOUS
 62
    7
 10
249.21225882865289
 20
160.3813748746305
 40
0.0608883012790937
  0
CIRCLE
  8
_1-1_
  6
CONTINUOUS
 62
    7
 10
248.53739145639781
 20
161.25868513777451
 40
0.0608883012790937
  0
CIRCLE
  8
_1-1_
  6
CONTINUOUS
 62
    7
 10
247.55886593380492
 20
161.56236803209461
 40
0.0608883012790937
  0
CIRCLE
  8
_1-1_
  6
CONTINUOUS
 62
    7
 10
247.64205520217484
 20
159.45340130780195
 40
0.0608883012790937
  0
CIRCLE
  8
_1-1_
  6
CONTINUOUS
 62
    7
 10
247.41351978198904
 20
158.76780741923565
 40
0.0608883012790937
  0
CIRCLE
  8
_1-1_
  6
CONTINUOUS
 62
    7
 10
248.3732893660262
 20
158.28391410209039
 40
0.0608883012790937
  0
CIRCLE
  8
_1-1_
  6
CONTINUOUS
 62
    7
 10
247.69842199377112
 20
159.16122436523437
 40
0.0608883012790937
  0
CIRCLE
  8
_1-1_
  6
CONTINUOUS
 62
    7
 10
246.71989647117823
 20
159.46490725955448
 40
0.0608883012790937
  0
CIRCLE
  8
_1-1_
  6
CONTINUOUS
 62
    7
 10
251.62722200960727
 20
161.13136497703761
 40
0.0608883012790937
  0
CIRCLE
  8
_1-1_
  6
CONTINUOUS
 62
    7
 10
251.39868658942146
 20
160.4457710884713
 40
0.0608883012790937
  0
CIRCLE
  8
_1-1_
  6
CONTINUOUS
 62
    7
 10
252.25722854201859
 20
159.55696724556589
 40
0.0608883012790937
  0
CIRCLE
  8
_1-1_
  6
CONTINUOUS
 62
    7
 10
252.35845617345862
 20
159.96187777132602
 40
0.0608883012790937
  0
CIRCLE
  8
_1-1_
  6
CONTINUOUS
 62
    7
 10
251.68358880120357
 20
160.83918803447003
 40
0.0608883012790937
  0
CIRCLE
  8
_1-1_
  6
CONTINUOUS
 62
    7
 10
250.70506327861065
 20
161.14287092879013
 40
0.0608883012790937
  0
CIRCLE
  8
_1-1_
  6
CONTINUOUS
 62
    7
 10
251.83697674725508
 20
163.22882574957771
 40
0.0608883012790937
  0
CIRCLE
  8
_1-1_
  6
CONTINUOUS
 62
    7
 10
251.60844132706927
 20
162.54323186101141
 40
0.0608883012790937
  0
CIRCLE
  8
_1-1_
  6
CONTINUOUS
 62
    7
 10
251.15139523067992
 20
161.40057950406461
 40
0.0608883012790937
  0
CIRCLE
  8
_1-1_
  6
CONTINUOUS
 62
    7
 10
252.46698327966641
 20
161.65442801810602
 40
0.0608883012790937
  0
CIRCLE
  8
_1-1_
  6
CONTINUOUS
 62
    7
 10
252.56821091110643
 20
162.05933854386615
 40
0.0608883012790937
  0
CIRCLE
  8
_1-1_
  6
CONTINUOUS
 62
    7
 10
251.89334353885135
 20
162.93664880701016
 40
0.0608883012790937
  0
CIRCLE
  8
_1-1_
  6
CONTINUOUS
 62
    7
 10
250.91481801625847
 20
163.24033170133023
 40
0.0608883012790937
  0
CIRCLE
  8
_1-1_
  6
CONTINUOUS
 62
    7
 10
251.31260227512669
 20
164.80192442198057
 40
0.0608883012790937
  0
CIRCLE
  8
_1-1_
  6
CONTINUOUS
 62
    7
 10
251.08406685494089
 20
164.11633053341427
 40
0.0608883012790937
  0
CIRCLE
  8
_1-1_
  6
CONTINUOUS
 62
    7
 10
250.62702075855154
 20
162.9736781764675
 40
0.0608883012790937
  0
CIRCLE
  8
_1-1_
  6
CONTINUOUS
 62
    7
 10
251.94260880753802
 20
163.22752669050888
 40
0.0608883012790937
  0
CIRCLE
  8
_1-1_
  6
CONTINUOUS
 62
    7
 10
252.04383643897805
 20
163.63243721626901
 40
0.0608883012790937
  0
CIRCLE
  8
_1-1_
  6
CONTINUOUS
 62
    7
 10
251.368969066723
 20
164.50974747941302
 40
0.0608883012790937
  0
CIRCLE
  8
_1-1_
  6
CONTINUOUS
 62
    7
 10
250.39044354413008
 20
164.81343037373313
 40
0.0608883012790937
  0
CIRCLE
  8
_1-1_
  6
CONTINUOUS
 62
    7
 10
252.25646147856844
 20
175.01689601588893
 40
0.0608883012790937
  0
CIRCLE
  8
_1-1_
  6
CONTINUOUS
 62
    7
 10
252.0279260583826
 20
174.33130212732266
 40
0.0608883012790937
  0
CIRCLE
  8
_1-1_
  6
CONTINUOUS
 62
    7
 10
251.57087996199326
 20
173.18864977037586
 40
0.0608883012790937
  0
CIRCLE
  8
_1-1_
  6
CONTINUOUS
 62
    7
 10
252.88646801097974
 20
173.44249828441724
 40
0.0608883012790937
  0
CIRCLE
  8
_1-1_
  6
CONTINUOUS
 62
    7
 10
252.98769564241977
 20
173.84740881017737
 40
0.0608883012790937
  0
CIRCLE
  8
_1-1_
  6
CONTINUOUS
 62
    7
 10
252.31282827016472
 20
174.72471907332138
 40
0.0608883012790937
  0
CIRCLE
  8
_1-1_
  6
CONTINUOUS
 62
    7
 10
251.3343027475718
 20
175.02840196764149
 40
0.0608883012790937
  0
CIRCLE
  8
_1-1_
  6
CONTINUOUS
 62
    7
 10
248.20493131070526
 20
174.97309916728253
 40
0.0608883012790937
  0
CIRCLE
  8
_1-1_
  6
CONTINUOUS
 62
    7
 10
251.24913396062078
 20
179.70828082110432
 40
0.0608883012790937
  0
CIRCLE
  8
_1-1_
  6
CONTINUOUS
 62
    7
 10
251.02059854043497
 20
179.02268693253802
 40
0.0608883012790937
  0
CIRCLE
  8
_1-1_
  6
CONTINUOUS
 62
    7
 10
250.56355244404563
 20
177.88003457559122
 40
0.0608883012790937
  0
CIRCLE
  8
_1-1_
  6
CONTINUOUS
 62
    7
 10
251.87914049303211
 20
178.1338830896326
 40
0.0608883012790937
  0
CIRCLE
  8
_1-1_
  6
CONTINUOUS
 62
    7
 10
251.98036812447214
 20
178.53879361539273
 40
0.0608883012790937
  0
CIRCLE
  8
_1-1_
  6
CONTINUOUS
 62
    7
 10
251.30550075221709
 20
179.41610387853675
 40
0.0608883012790937
  0
CIRCLE
  8
_1-1_
  6
CONTINUOUS
 62
    7
 10
250.32697522962417
 20
179.71978677285685
 40
0.0608883012790937
  0
CIRCLE
  8
_1-1_
  6
CONTINUOUS
 62
    7
 10
251.87837342958193
 20
177.61080767657307
 40
0.0608883012790937
  0
CIRCLE
  8
_1-1_
  6
CONTINUOUS
 62
    7
 10
251.64983800939612
 20
176.92521378800677
 40
0.0608883012790937
  0
CIRCLE
  8
_1-1_
  6
CONTINUOUS
 62
    7
 10
251.19279191300677
 20
175.78256143105997
 40
0.0608883012790937
  0
CIRCLE
  8
_1-1_
  6
CONTINUOUS
 62
    7
 10
252.50837996199326
 20
176.03640994510135
 40
0.0608883012790937
  0
CIRCLE
  8
_1-1_
  6
CONTINUOUS
 62
    7
 10
252.60960759343328
 20
176.44132047086148
 40
0.0608883012790937
  0
CIRCLE
  8
_1-1_
  6
CONTINUOUS
 62
    7
 10
251.93474022117823
 20
177.3186307340055
 40
0.0608883012790937
  0
CIRCLE
  8
_1-1_
  6
CONTINUOUS
 62
    7
 10
250.95621469858531
 20
177.6223136283256
 40
0.0608883012790937
  0
CIRCLE
  8
_1-1_
  6
CONTINUOUS
 62
    7
 10
252.04673148490289
 20
179.21181756096919
 40
0.0608883012790937
  0
CIRCLE
  8
_1-1_
  6
CONTINUOUS
 62
    7
 10
252.80345195048565
 20
176.92521378800677
 40
0.0608883012790937
  0
CIRCLE
  8
_1-1_
  6
CONTINUOUS
 62
    7
 10
252.3464058540963
 20
175.78256143105997
 40
0.0608883012790937
  0
CIRCLE
  8
_1-1_
  6
CONTINUOUS
 62
    7
 10
252.67673801731419
 20
177.63741982949747
 40
0.0608883012790937
  0
CIRCLE
  8
_1-1_
  6
CONTINUOUS
 62
    7
 10
252.77796564875425
 20
178.0423303552576
 40
0.0608883012790937
  0
CIRCLE
  8
_1-1_
  6
CONTINUOUS
 62
    7
 10
252.10309827649917
 20
178.91964061840162
 40
0.0608883012790937
  0
CIRCLE
  8
_1-1_
  6
CONTINUOUS
 62
    7
 10
252.10982863967484
 20
177.6223136283256
 40
0.0608883012790937
  0
CIRCLE
  8
_1-1_
  6
CONTINUOUS
 62
    7
 10
252.57108121304901
 20
177.00947941960516
 40
0.0608883012790937
  0
CIRCLE
  8
_1-1_
  6
CONTINUOUS
 62
    7
 10
252.34254579286318
 20
176.32388553103885
 40
0.0608883012790937
  0
CIRCLE
  8
_1-1_
  6
CONTINUOUS
 62
    7
 10
251.88549969647383
 20
175.18123317409206
 40
0.0608883012790937
  0
CIRCLE
  8
_1-1_
  6
CONTINUOUS
 62
    7
 10
253.20108774546031
 20
175.43508168813347
 40
0.0608883012790937
  0
CIRCLE
  8
_1-1_
  6
CONTINUOUS
 62
    7
 10
253.30231537690034
 20
175.83999221389359
 40
0.0608883012790937
  0
CIRCLE
  8
_1-1_
  6
CONTINUOUS
 62
    7
 10
252.62744800464529
 20
176.71730247703761
 40
0.0608883012790937
  0
CIRCLE
  8
_1-1_
  6
CONTINUOUS
 62
    7
 10
252.63417836782097
 20
175.41997548696159
 40
0.0608883012790937
  0
CIRCLE
  8
_1-1_
  6
CONTINUOUS
 62
    7
 10
247.57856214368667
 20
178.97416398331927
 40
0.0608883012790937
  0
CIRCLE
  8
_1-1_
  6
CONTINUOUS
 62
    7
 10
246.65640341269005
 20
178.9856699350718
 40
0.0608883012790937
  0
CIRCLE
  8
_1-1_
  6
CONTINUOUS
 62
    7
 10
245.64944705447635
 20
174.28277917810391
 40
0.0608883012790937
  0
CIRCLE
  8
_1-1_
  6
CONTINUOUS
 62
    7
 10
245.42091163429055
 20
173.59718528953761
 40
0.0608883012790937
  0
CIRCLE
  8
_1-1_
  6
CONTINUOUS
 62
    7
 10
244.9638655379012
 20
172.45453293259081
 40
0.0608883012790937
  0
CIRCLE
  8
_1-1_
  6
CONTINUOUS
 62
    7
 10
246.27945358688768
 20
172.70838144663219
 40
0.0608883012790937
  0
CIRCLE
  8
_1-1_
  6
CONTINUOUS
 62
    7
 10
246.38068121832771
 20
173.11329197239232
 40
0.0608883012790937
  0
CIRCLE
  8
_1-1_
  6
CONTINUOUS
 62
    7
 10
245.70581384607266
 20
173.99060223553633
 40
0.0608883012790937
  0
CIRCLE
  8
_1-1_
  6
CONTINUOUS
 62
    7
 10
244.72728832347974
 20
174.29428512985643
 40
0.0608883012790937
  0
CIRCLE
  8
_1-1_
  6
CONTINUOUS
 62
    7
 10
247.64205520217484
 20
164.06781995618667
 40
0.0608883012790937
  0
CIRCLE
  8
_1-1_
  6
CONTINUOUS
 62
    7
 10
247.41351978198904
 20
163.38222606762037
 40
0.0608883012790937
  0
CIRCLE
  8
_1-1_
  6
CONTINUOUS
 62
    7
 10
246.95647368559969
 20
162.23957371067357
 40
0.0608883012790937
  0
CIRCLE
  8
_1-1_
  6
CONTINUOUS
 62
    7
 10
248.27206173458617
 20
162.49342222471495
 40
0.0608883012790937
  0
CIRCLE
  8
_1-1_
  6
CONTINUOUS
 62
    7
 10
248.3732893660262
 20
162.89833275047511
 40
0.0608883012790937
  0
CIRCLE
  8
_1-1_
  6
CONTINUOUS
 62
    7
 10
247.69842199377112
 20
163.77564301361909
 40
0.0608883012790937
  0
CIRCLE
  8
_1-1_
  6
CONTINUOUS
 62
    7
 10
246.71989647117823
 20
164.07932590793919
 40
0.0608883012790937
  0
CIRCLE
  8
_1-1_
  6
CONTINUOUS
 62
    7
 10
248.48102466480154
 20
160.0826407767631
 40
0.0608883012790937
  0
CIRCLE
  8
_1-1_
  6
CONTINUOUS
 62
    7
 10
248.25248924461573
 20
159.3970468881968
 40
0.0608883012790937
  0
CIRCLE
  8
_1-1_
  6
CONTINUOUS
 62
    7
 10
247.79544314822635
 20
158.25439453125
 40
0.0608883012790937
  0
CIRCLE
  8
_1-1_
  6
CONTINUOUS
 62
    7
 10
249.21225882865289
 20
158.91315357105154
 40
0.0608883012790937
  0
CIRCLE
  8
_1-1_
  6
CONTINUOUS
 62
    7
 10
248.53739145639781
 20
159.79046383419552
 40
0.0608883012790937
  0
CIRCLE
  8
_1-1_
  6
CONTINUOUS
 62
    7
 10
247.55886593380492
 20
160.09414672851562
 40
0.0608883012790937
  0
CIRCLE
  8
_1-1_
  6
CONTINUOUS
 62
    7
 10
247.0345162056588
 20
158.10155095280828
 40
0.0608883012790937
  0
CIRCLE
  8
_1-1_
  6
CONTINUOUS
 62
    7
 10
241.87401024070948
 20
163.22882574957771
 40
0.0608883012790937
  0
CIRCLE
  8
_1-1_
  6
CONTINUOUS
 62
    7
 10
241.64547482052367
 20
162.54323186101141
 40
0.0608883012790937
  0
CIRCLE
  8
_1-1_
  6
CONTINUOUS
 62
    7
 10
241.1884287241343
 20
161.40057950406461
 40
0.0608883012790937
  0
CIRCLE
  8
_1-1_
  6
CONTINUOUS
 62
    7
 10
242.50401677312078
 20
161.65442801810602
 40
0.0608883012790937
  0
CIRCLE
  8
_1-1_
  6
CONTINUOUS
 62
    7
 10
242.60524440456084
 20
162.05933854386615
 40
0.0608883012790937
  0
CIRCLE
  8
_1-1_
  6
CONTINUOUS
 62
    7
 10
241.93037703230576
 20
162.93664880701016
 40
0.0608883012790937
  0
CIRCLE
  8
_1-1_
  6
CONTINUOUS
 62
    7
 10
240.95185150971284
 20
163.24033170133023
 40
0.0608883012790937
  0
CIRCLE
  8
_1-1_
  6
CONTINUOUS
 62
    7
 10
244.70558785103464
 20
161.65573944916596
 40
0.0608883012790937
  0
CIRCLE
  8
_1-1_
  6
CONTINUOUS
 62
    7
 10
244.47705243084883
 20
160.97014556059966
 40
0.0608883012790937
  0
CIRCLE
  8
_1-1_
  6
CONTINUOUS
 62
    7
 10
244.02000633445948
 20
159.82749320365289
 40
0.0608883012790937
  0
CIRCLE
  8
_1-1_
  6
CONTINUOUS
 62
    7
 10
245.33559438344597
 20
160.08134171769427
 40
0.0608883012790937
  0
CIRCLE
  8
_1-1_
  6
CONTINUOUS
 62
    7
 10
245.43682201488599
 20
160.4862522434544
 40
0.0608883012790937
  0
CIRCLE
  8
_1-1_
  6
CONTINUOUS
 62
    7
 10
244.76195464263094
 20
161.36356250659841
 40
0.0608883012790937
  0
CIRCLE
  8
_1-1_
  6
CONTINUOUS
 62
    7
 10
243.78342912003802
 20
161.66724540091852
 40
0.0608883012790937
  0
CIRCLE
  8
_1-1_
  6
CONTINUOUS
 62
    7
 10
246.17382152660474
 20
162.70446364944047
 40
0.0608883012790937
  0
CIRCLE
  8
_1-1_
  6
CONTINUOUS
 62
    7
 10
245.94528610641893
 20
162.01886976087417
 40
0.0608883012790937
  0
CIRCLE
  8
_1-1_
  6
CONTINUOUS
 62
    7
 10
245.48824001002959
 20
160.87621740392737
 40
0.0608883012790937
  0
CIRCLE
  8
_1-1_
  6
CONTINUOUS
 62
    7
 10
246.80382805901607
 20
161.13006591796875
 40
0.0608883012790937
  0
CIRCLE
  8
_1-1_
  6
CONTINUOUS
 62
    7
 10
246.90505569045609
 20
161.53497644372891
 40
0.0608883012790937
  0
CIRCLE
  8
_1-1_
  6
CONTINUOUS
 62
    7
 10
246.23018831820102
 20
162.41228670687289
 40
0.0608883012790937
  0
CIRCLE
  8
_1-1_
  6
CONTINUOUS
 62
    7
 10
245.25166279560813
 20
162.715969601193
 40
0.0608883012790937
  0
CIRCLE
  8
_1-1_
  6
CONTINUOUS
 62
    7
 10
248.90053414009714
 20
165.32629889410896
 40
0.0608883012790937
  0
CIRCLE
  8
_1-1_
  6
CONTINUOUS
 62
    7
 10
248.67199871991133
 20
164.64070500554266
 40
0.0608883012790937
  0
CIRCLE
  8
_1-1_
  6
CONTINUOUS
 62
    7
 10
248.21495262352198
 20
163.49805264859586
 40
0.0608883012790937
  0
CIRCLE
  8
_1-1_
  6
CONTINUOUS
 62
    7
 10
249.53054067250847
 20
163.75190116263727
 40
0.0608883012790937
  0
CIRCLE
  8
_1-1_
  6
CONTINUOUS
 62
    7
 10
249.63176830394849
 20
164.1568116883974
 40
0.0608883012790937
  0
CIRCLE
  8
_1-1_
  6
CONTINUOUS
 62
    7
 10
248.95690093169344
 20
165.03412195154141
 40
0.0608883012790937
  0
CIRCLE
  8
_1-1_
  6
CONTINUOUS
 62
    7
 10
247.97837540910052
 20
165.33780484586148
 40
0.0608883012790937
  0
CIRCLE
  8
_1-1_
  6
CONTINUOUS
 62
    7
 10
249.94925834037164
 20
173.1291776090055
 40
0.0608883012790937
  0
CIRCLE
  8
_1-1_
  6
CONTINUOUS
 62
    7
 10
249.72072292018584
 20
172.44358372043919
 40
0.0608883012790937
  0
CIRCLE
  8
_1-1_
  6
CONTINUOUS
 62
    7
 10
249.26367682379646
 20
164.96627395217484
 40
0.0608883012790937
  0
CIRCLE
  8
_1-1_
  6
CONTINUOUS
 62
    7
 10
250.57926487278294
 20
165.22012246621622
 40
0.0608883012790937
  0
CIRCLE
  8
_1-1_
  6
CONTINUOUS
 62
    7
 10
250.680492504223
 20
165.62503299197635
 40
0.0608883012790937
  0
CIRCLE
  8
_1-1_
  6
CONTINUOUS
 62
    7
 10
250.00562513196792
 20
172.83700066643794
 40
0.0608883012790937
  0
CIRCLE
  8
_1-1_
  6
CONTINUOUS
 62
    7
 10
249.027099609375
 20
173.14068356075802
 40
0.0608883012790937
  0
CIRCLE
  8
_1-1_
  6
CONTINUOUS
 62
    7
 10
251.83697674725508
 20
172.60481550886826
 40
0.0608883012790937
  0
CIRCLE
  8
_1-1_
  6
CONTINUOUS
 62
    7
 10
251.60844132706927
 20
165.58456420898437
 40
0.0608883012790937
  0
CIRCLE
  8
_1-1_
  6
CONTINUOUS
 62
    7
 10
251.15139523067992
 20
164.44191185203761
 40
0.0608883012790937
  0
CIRCLE
  8
_1-1_
  6
CONTINUOUS
 62
    7
 10
252.46698327966641
 20
164.69576036607899
 40
0.0608883012790937
  0
CIRCLE
  8
_1-1_
  6
CONTINUOUS
 62
    7
 10
252.56821091110643
 20
165.10067089183912
 40
0.0608883012790937
  0
CIRCLE
  8
_1-1_
  6
CONTINUOUS
 62
    7
 10
251.89334353885135
 20
172.31263856630068
 40
0.0608883012790937
  0
CIRCLE
  8
_1-1_
  6
CONTINUOUS
 62
    7
 10
250.91481801625847
 20
172.61632146062078
 40
0.0608883012790937
  0
CIRCLE
  8
_1-1_
  6
CONTINUOUS
 62
    7
 10
252.29785816089529
 20
176.247463741818
 40
0.0608883012790937
  0
CIRCLE
  8
_1-1_
  6
CONTINUOUS
 62
    7
 10
252.06932274070948
 20
175.56186985325169
 40
0.0608883012790937
  0
CIRCLE
  8
_1-1_
  6
CONTINUOUS
 62
    7
 10
250.62702075855154
 20
176.02022738070102
 40
0.0608883012790937
  0
CIRCLE
  8
_1-1_
  6
CONTINUOUS
 62
    7
 10
251.94260880753802
 20
176.2740758947424
 40
0.0608883012790937
  0
CIRCLE
  8
_1-1_
  6
CONTINUOUS
 62
    7
 10
252.04383643897805
 20
176.67898642050255
 40
0.0608883012790937
  0
CIRCLE
  8
_1-1_
  6
CONTINUOUS
 62
    7
 10
252.35422495249156
 20
175.95528679925044
 40
0.0608883012790937
  0
CIRCLE
  8
_1-1_
  6
CONTINUOUS
 62
    7
 10
251.37569942989867
 20
176.25896969357052
 40
0.0608883012790937
  0
CIRCLE
  8
_1-1_
  6
CONTINUOUS
 62
    7
 10
252.61247789537586
 20
180.0229005555849
 40
0.0608883012790937
  0
CIRCLE
  8
_1-1_
  6
CONTINUOUS
 62
    7
 10
252.38394247519005
 20
179.33730666701859
 40
0.0608883012790937
  0
CIRCLE
  8
_1-1_
  6
CONTINUOUS
 62
    7
 10
251.92689637880068
 20
178.1946543100718
 40
0.0608883012790937
  0
CIRCLE
  8
_1-1_
  6
CONTINUOUS
 62
    7
 10
252.25722854201859
 20
180.0495127085093
 40
0.0608883012790937
  0
CIRCLE
  8
_1-1_
  6
CONTINUOUS
 62
    7
 10
252.35845617345862
 20
180.45442323426943
 40
0.0608883012790937
  0
CIRCLE
  8
_1-1_
  6
CONTINUOUS
 62
    7
 10
252.66884468697214
 20
179.73072361301732
 40
0.0608883012790937
  0
CIRCLE
  8
_1-1_
  6
CONTINUOUS
 62
    7
 10
251.69031916437925
 20
180.03440650733742
 40
0.0608883012790937
  0
CIRCLE
  8
_1-1_
  6
CONTINUOUS
 62
    7
 10
252.92709762985643
 20
182.74960079708615
 40
0.0608883012790937
  0
CIRCLE
  8
_1-1_
  6
CONTINUOUS
 62
    7
 10
252.69856220967063
 20
182.06400690851987
 40
0.0608883012790937
  0
CIRCLE
  8
_1-1_
  6
CONTINUOUS
 62
    7
 10
252.24151611328125
 20
180.92135455157307
 40
0.0608883012790937
  0
CIRCLE
  8
_1-1_
  6
CONTINUOUS
 62
    7
 10
252.57184827649917
 20
182.77621295001057
 40
0.0608883012790937
  0
CIRCLE
  8
_1-1_
  6
CONTINUOUS
 62
    7
 10
252.67307590793919
 20
183.1811234757707
 40
0.0608883012790937
  0
CIRCLE
  8
_1-1_
  6
CONTINUOUS
 62
    7
 10
251.99820853568414
 20
184.05843373891472
 40
0.0608883012790937
  0
CIRCLE
  8
_1-1_
  6
CONTINUOUS
 62
    7
 10
252.00493889885982
 20
182.7611067488387
 40
0.0608883012790937
  0
CIRCLE
  8
_1-1_
  6
CONTINUOUS
 62
    7
 10
252.57108121304901
 20
186.02858672270904
 40
0.0608883012790937
  0
CIRCLE
  8
_1-1_
  6
CONTINUOUS
 62
    7
 10
252.34254579286318
 20
185.34299283414273
 40
0.0608883012790937
  0
CIRCLE
  8
_1-1_
  6
CONTINUOUS
 62
    7
 10
252.87075558224242
 20
182.59933059279984
 40
0.0608883012790937
  0
CIRCLE
  8
_1-1_
  6
CONTINUOUS
 62
    7
 10
253.20108774546031
 20
184.45418899123734
 40
0.0608883012790937
  0
CIRCLE
  8
_1-1_
  6
CONTINUOUS
 62
    7
 10
253.30231537690034
 20
184.85909951699747
 40
0.0608883012790937
  0
CIRCLE
  8
_1-1_
  6
CONTINUOUS
 62
    7
 10
252.62744800464529
 20
185.73640978014149
 40
0.0608883012790937
  0
CIRCLE
  8
_1-1_
  6
CONTINUOUS
 62
    7
 10
252.63417836782097
 20
184.43908279006547
 40
0.0608883012790937
  0
CIRCLE
  8
_1-1_
  6
CONTINUOUS
 62
    7
 10
253.41007541965794
 20
181.30929070550044
 40
0.0608883012790937
  0
CIRCLE
  8
_1-1_
  6
CONTINUOUS
 62
    7
 10
253.18153999947214
 20
180.62369681693414
 40
0.0608883012790937
  0
CIRCLE
  8
_1-1_
  6
CONTINUOUS
 62
    7
 10
252.72449390308279
 20
179.48104445998734
 40
0.0608883012790937
  0
CIRCLE
  8
_1-1_
  6
CONTINUOUS
 62
    7
 10
254.04008195206927
 20
179.73489297402872
 40
0.0608883012790937
  0
CIRCLE
  8
_1-1_
  6
CONTINUOUS
 62
    7
 10
254.1413095835093
 20
180.13980349978885
 40
0.0608883012790937
  0
CIRCLE
  8
_1-1_
  6
CONTINUOUS
 62
    7
 10
253.46644221125425
 20
181.01711376293287
 40
0.0608883012790937
  0
CIRCLE
  8
_1-1_
  6
CONTINUOUS
 62
    7
 10
252.48791668866133
 20
181.32079665725297
 40
0.0608883012790937
  0
CIRCLE
  8
_1-1_
  6
CONTINUOUS
 62
    7
 10
252.82223263302367
 20
176.87670321077914
 40
0.0608883012790937
  0
CIRCLE
  8
_1-1_
  6
CONTINUOUS
 62
    7
 10
252.59369721283784
 20
176.19110932221284
 40
0.0608883012790937
  0
CIRCLE
  8
_1-1_
  6
CONTINUOUS
 62
    7
 10
252.13665111644849
 20
175.04845696526607
 40
0.0608883012790937
  0
CIRCLE
  8
_1-1_
  6
CONTINUOUS
 62
    7
 10
252.46698327966641
 20
176.90331536370357
 40
0.0608883012790937
  0
CIRCLE
  8
_1-1_
  6
CONTINUOUS
 62
    7
 10
252.56821091110643
 20
177.3082258894637
 40
0.0608883012790937
  0
CIRCLE
  8
_1-1_
  6
CONTINUOUS
 62
    7
 10
252.87859942461995
 20
176.58452626821159
 40
0.0608883012790937
  0
CIRCLE
  8
_1-1_
  6
CONTINUOUS
 62
    7
 10
251.90007390202703
 20
176.88820916253169
 40
0.0608883012790937
  0
CIRCLE
  8
_1-1_
  6
CONTINUOUS
 62
    7
 10
250.51502949482688
 20
175.61822427285685
 40
0.0608883012790937
  0
CIRCLE
  8
_1-1_
  6
CONTINUOUS
 62
    7
 10
250.28649407464107
 20
174.93263038429055
 40
0.0608883012790937
  0
CIRCLE
  8
_1-1_
  6
CONTINUOUS
 62
    7
 10
250.15978014146961
 20
175.64483642578125
 40
0.0608883012790937
  0
CIRCLE
  8
_1-1_
  6
CONTINUOUS
 62
    7
 10
250.26100777290964
 20
176.04974695154141
 40
0.0608883012790937
  0
CIRCLE
  8
_1-1_
  6
CONTINUOUS
 62
    7
 10
250.57139628642315
 20
175.32604733028927
 40
0.0608883012790937
  0
CIRCLE
  8
_1-1_
  6
CONTINUOUS
 62
    7
 10
248.58591440561656
 20
174.59739891258448
 40
0.0608883012790937
  0
CIRCLE
  8
_1-1_
  6
CONTINUOUS
 62
    7
 10
248.35737898543076
 20
173.91180502401818
 40
0.0608883012790937
  0
CIRCLE
  8
_1-1_
  6
CONTINUOUS
 62
    7
 10
247.90033288904141
 20
172.76915266707138
 40
0.0608883012790937
  0
CIRCLE
  8
_1-1_
  6
CONTINUOUS
 62
    7
 10
249.21592093802789
 20
173.02300118111276
 40
0.0608883012790937
  0
CIRCLE
  8
_1-1_
  6
CONTINUOUS
 62
    7
 10
249.31714856946792
 20
173.42791170687289
 40
0.0608883012790937
  0
CIRCLE
  8
_1-1_
  6
CONTINUOUS
 62
    7
 10
248.64228119721284
 20
174.3052219700169
 40
0.0608883012790937
  0
CIRCLE
  8
_1-1_
  6
CONTINUOUS
 62
    7
 10
247.66375567461995
 20
174.60890486433701
 40
0.0608883012790937
  0
CIRCLE
  8
_1-1_
  6
CONTINUOUS
 62
    7
 10
242.93936239706505
 20
173.38995443808068
 40
0.0608883012790937
  0
CIRCLE
  8
_1-1_
  6
CONTINUOUS
 62
    7
 10
243.60052160314612
 20
172.24479056693414
 40
0.0608883012790937
  0
CIRCLE
  8
_1-1_
  6
CONTINUOUS
 62
    7
 10
243.36394438872469
 20
174.08454276419977
 40
0.0608883012790937
  0
CIRCLE
  8
_1-1_
  6
CONTINUOUS
 62
    7
 10
242.6566623997044
 20
172.76915266707138
 40
0.0608883012790937
  0
CIRCLE
  8
_1-1_
  6
CONTINUOUS
 62
    7
 10
241.50307320259714
 20
172.87401766390414
 40
0.0608883012790937
  0
CIRCLE
  8
_1-1_
  6
CONTINUOUS
 62
    7
 10
242.20525793127112
 20
163.90909968195734
 40
0.0608883012790937
  0
CIRCLE
  8
_1-1_
  6
CONTINUOUS
 62
    7
 10
242.86641713735222
 20
165.17601631783151
 40
0.0608883012790937
  0
CIRCLE
  8
_1-1_
  6
CONTINUOUS
 62
    7
 10
242.86641713735222
 20
162.76393581081081
 40
0.0608883012790937
  0
CIRCLE
  8
_1-1_
  6
CONTINUOUS
 62
    7
 10
242.62983992293076
 20
164.60368800807643
 40
0.0608883012790937
  0
CIRCLE
  8
_1-1_
  6
CONTINUOUS
 62
    7
 10
242.10039293443836
 20
162.02138127507391
 40
0.0608883012790937
  0
CIRCLE
  8
_1-1_
  6
CONTINUOUS
 62
    7
 10
242.76155214051943
 20
163.28829791094807
 40
0.0608883012790937
  0
CIRCLE
  8
_1-1_
  6
CONTINUOUS
 62
    7
 10
242.76155214051943
 20
160.87621740392737
 40
0.0608883012790937
  0
CIRCLE
  8
_1-1_
  6
CONTINUOUS
 62
    7
 10
242.524974926098
 20
162.715969601193
 40
0.0608883012790937
  0
CIRCLE
  8
_1-1_
  6
CONTINUOUS
 62
    7
 10
246.08555974187078
 20
172.55096023147172
 40
0.0608883012790937
  0
CIRCLE
  8
_1-1_
  6
CONTINUOUS
 62
    7
 10
246.74671894795188
 20
173.81787686734586
 40
0.0608883012790937
  0
CIRCLE
  8
_1-1_
  6
CONTINUOUS
 62
    7
 10
246.74671894795188
 20
165.0711389490076
 40
0.0608883012790937
  0
CIRCLE
  8
_1-1_
  6
CONTINUOUS
 62
    7
 10
246.51014173353042
 20
173.24554855759081
 40
0.0608883012790937
  0
ARC
  8
_1-1_
  6
CONTINUOUS
 62
    3
 10
217.54421749630492
 20
161.18512127850508
 40
21.929379025021117
 50
350.48771667480463
 51
28.368103027343722
  0
CIRCLE
  8
_1-1_
  6
CONTINUOUS
 62
    7
 10
247.8789046004012
 20
170.43170001055745
 40
0.0608883012790937
  0
CIRCLE
  8
_1-1_
  6
CONTINUOUS
 62
    7
 10
248.2982903557855
 20
170.12162079682221
 40
0.0608883012790937
  0
CIRCLE
  8
_1-1_
  6
CONTINUOUS
 62
    7
 10
249.09816432643584
 20
169.32175919816302
 40
0.0608883012790937
  0
CIRCLE
  8
_1-1_
  6
CONTINUOUS
 62
    7
 10
247.13722847603464
 20
168.58096148516682
 40
0.0608883012790937
  0
CIRCLE
  8
_1-1_
  6
CONTINUOUS
 62
    7
 10
251.41907563080659
 20
170.50424936655406
 40
0.0608883012790937
  0
CIRCLE
  8
_1-1_
  6
CONTINUOUS
 62
    7
 10
250.96202953441724
 20
169.36159700960727
 40
0.0608883012790937
  0
CIRCLE
  8
_1-1_
  6
CONTINUOUS
 62
    7
 10
249.34040791279563
 20
169.30212484823693
 40
0.0608883012790937
  0
CIRCLE
  8
_1-1_
  6
CONTINUOUS
 62
    7
 10
249.11187249260982
 20
168.61653095967063
 40
0.0608883012790937
  0
CIRCLE
  8
_1-1_
  6
CONTINUOUS
 62
    7
 10
249.3967747043919
 20
169.00994790566935
 40
0.0608883012790937
  0
CIRCLE
  8
_1-1_
  6
CONTINUOUS
 62
    7
 10
248.41824918179901
 20
169.31363079998945
 40
0.0608883012790937
  0
CIRCLE
  8
_1-1_
  6
CONTINUOUS
 62
    7
 10
251.22812631967906
 20
168.77776274809966
 40
0.0608883012790937
  0
CIRCLE
  8
_1-1_
  6
CONTINUOUS
 62
    7
 10
251.28449311127534
 20
168.48558580553211
 40
0.0608883012790937
  0
CIRCLE
  8
_1-1_
  6
CONTINUOUS
 62
    7
 10
250.30596758868245
 20
168.78926869985222
 40
0.0608883012790937
  0
CIRCLE
  8
_1-1_
  6
CONTINUOUS
 62
    7
 10
247.74852855785474
 20
170.08475226324958
 40
0.0608883012790937
  0
CIRCLE
  8
_1-1_
  6
CONTINUOUS
 62
    7
 10
247.29148246146539
 20
168.94209990630279
 40
0.0608883012790937
  0
CIRCLE
  8
_1-1_
  6
CONTINUOUS
 62
    7
 10
248.60707051045188
 20
169.19594842034419
 40
0.0608883012790937
  0
CIRCLE
  8
_1-1_
  6
CONTINUOUS
 62
    7
 10
248.7082981418919
 20
169.60085894610432
 40
0.0608883012790937
  0
CIRCLE
  8
_1-1_
  6
CONTINUOUS
 62
    7
 10
248.03343076963685
 20
170.47816920924831
 40
0.0608883012790937
  0
CIRCLE
  8
_1-1_
  6
CONTINUOUS
 62
    7
 10
250.40128140836151
 20
168.51818600216427
 40
0.0608883012790937
  0
CIRCLE
  8
_1-1_
  6
CONTINUOUS
 62
    7
 10
250.82066716374578
 20
168.20810678842906
 40
0.0608883012790937
  0
CIRCLE
  8
_1-1_
  6
CONTINUOUS
 62
    7
 10
251.62054113439612
 20
167.40824518976984
 40
0.0608883012790937
  0
CIRCLE
  8
_1-1_
  6
CONTINUOUS
 62
    7
 10
249.65960528399495
 20
166.66744747677365
 40
0.0608883012790937
  0
CIRCLE
  8
_1-1_
  6
CONTINUOUS
 62
    7
 10
253.9414524387669
 20
168.59073535816091
 40
0.0608883012790937
  0
CIRCLE
  8
_1-1_
  6
CONTINUOUS
 62
    7
 10
253.48440634237755
 20
167.44808300121412
 40
0.0608883012790937
  0
CIRCLE
  8
_1-1_
  6
CONTINUOUS
 62
    7
 10
251.86278472075594
 20
167.38861083984375
 40
0.0608883012790937
  0
CIRCLE
  8
_1-1_
  6
CONTINUOUS
 62
    7
 10
251.6342493005701
 20
166.70301695127745
 40
0.0608883012790937
  0
CIRCLE
  8
_1-1_
  6
CONTINUOUS
 62
    7
 10
251.91915151235222
 20
167.0964338972762
 40
0.0608883012790937
  0
CIRCLE
  8
_1-1_
  6
CONTINUOUS
 62
    7
 10
250.9406259897593
 20
167.4001167915963
 40
0.0608883012790937
  0
CIRCLE
  8
_1-1_
  6
CONTINUOUS
 62
    7
 10
253.75050312763938
 20
166.86424873970651
 40
0.0608883012790937
  0
CIRCLE
  8
_1-1_
  6
CONTINUOUS
 62
    7
 10
253.80686991923565
 20
166.57207179713893
 40
0.0608883012790937
  0
CIRCLE
  8
_1-1_
  6
CONTINUOUS
 62
    7
 10
252.82834439664276
 20
166.87575469145904
 40
0.0608883012790937
  0
CIRCLE
  8
_1-1_
  6
CONTINUOUS
 62
    7
 10
250.27090536581505
 20
168.17123825485643
 40
0.0608883012790937
  0
CIRCLE
  8
_1-1_
  6
CONTINUOUS
 62
    7
 10
249.81385926942568
 20
167.02858589790964
 40
0.0608883012790937
  0
CIRCLE
  8
_1-1_
  6
CONTINUOUS
 62
    7
 10
251.12944731841219
 20
167.28243441195102
 40
0.0608883012790937
  0
CIRCLE
  8
_1-1_
  6
CONTINUOUS
 62
    7
 10
251.23067494985222
 20
167.68734493771115
 40
0.0608883012790937
  0
CIRCLE
  8
_1-1_
  6
CONTINUOUS
 62
    7
 10
250.55580757759714
 20
168.56465520085516
 40
0.0608883012790937
  0
CIRCLE
  8
_1-1_
  6
CONTINUOUS
 62
    7
 10
248.2268049910262
 20
168.17027323954815
 40
0.0608883012790937
  0
CIRCLE
  8
_1-1_
  6
CONTINUOUS
 62
    7
 10
248.6461907464105
 20
167.86019402581294
 40
0.0608883012790937
  0
CIRCLE
  8
_1-1_
  6
CONTINUOUS
 62
    7
 10
249.44606471706084
 20
167.06033242715372
 40
0.0608883012790937
  0
CIRCLE
  8
_1-1_
  6
CONTINUOUS
 62
    7
 10
247.48512886665964
 20
166.31953471415753
 40
0.0608883012790937
  0
CIRCLE
  8
_1-1_
  6
CONTINUOUS
 62
    7
 10
251.76697602143159
 20
168.24282259554477
 40
0.0608883012790937
  0
CIRCLE
  8
_1-1_
  6
CONTINUOUS
 62
    7
 10
251.30992992504224
 20
167.10017023859797
 40
0.0608883012790937
  0
CIRCLE
  8
_1-1_
  6
CONTINUOUS
 62
    7
 10
249.68830830342063
 20
167.04069807722763
 40
0.0608883012790937
  0
CIRCLE
  8
_1-1_
  6
CONTINUOUS
 62
    7
 10
249.45977288323482
 20
166.35510418866133
 40
0.0608883012790937
  0
CIRCLE
  8
_1-1_
  6
CONTINUOUS
 62
    7
 10
249.7446750950169
 20
166.74852113466005
 40
0.0608883012790937
  0
CIRCLE
  8
_1-1_
  6
CONTINUOUS
 62
    7
 10
248.76614957242401
 20
167.05220402898016
 40
0.0608883012790937
  0
CIRCLE
  8
_1-1_
  6
CONTINUOUS
 62
    7
 10
251.57602671030406
 20
166.51633597709039
 40
0.0608883012790937
  0
CIRCLE
  8
_1-1_
  6
CONTINUOUS
 62
    7
 10
251.63239350190034
 20
166.22415903452281
 40
0.0608883012790937
  0
CIRCLE
  8
_1-1_
  6
CONTINUOUS
 62
    7
 10
250.65386797930745
 20
166.52784192884292
 40
0.0608883012790937
  0
CIRCLE
  8
_1-1_
  6
CONTINUOUS
 62
    7
 10
248.09642894847974
 20
167.82332549224029
 40
0.0608883012790937
  0
CIRCLE
  8
_1-1_
  6
CONTINUOUS
 62
    7
 10
247.63938285209039
 20
166.68067313529352
 40
0.0608883012790937
  0
CIRCLE
  8
_1-1_
  6
CONTINUOUS
 62
    7
 10
248.95497090107688
 20
166.9345216493349
 40
0.0608883012790937
  0
CIRCLE
  8
_1-1_
  6
CONTINUOUS
 62
    7
 10
249.0561985325169
 20
167.33943217509503
 40
0.0608883012790937
  0
CIRCLE
  8
_1-1_
  6
CONTINUOUS
 62
    7
 10
248.38133116026185
 20
168.21674243823904
 40
0.0608883012790937
  0
CIRCLE
  8
_1-1_
  6
CONTINUOUS
 62
    7
 10
244.48675207189612
 20
168.95307386243667
 40
0.0608883012790937
  0
CIRCLE
  8
_1-1_
  6
CONTINUOUS
 62
    7
 10
244.90613782728042
 20
168.64299464870143
 40
0.0608883012790937
  0
CIRCLE
  8
_1-1_
  6
CONTINUOUS
 62
    7
 10
245.70601179793076
 20
167.84313305004224
 40
0.0608883012790937
  0
CIRCLE
  8
_1-1_
  6
CONTINUOUS
 62
    7
 10
243.74507594752959
 20
167.10233533704604
 40
0.0608883012790937
  0
CIRCLE
  8
_1-1_
  6
CONTINUOUS
 62
    7
 10
248.02692310230154
 20
169.02562321843328
 40
0.0608883012790937
  0
CIRCLE
  8
_1-1_
  6
CONTINUOUS
 62
    7
 10
247.56987700591219
 20
167.88297086148648
 40
0.0608883012790937
  0
CIRCLE
  8
_1-1_
  6
CONTINUOUS
 62
    7
 10
245.94825538429055
 20
167.82349870011615
 40
0.0608883012790937
  0
CIRCLE
  8
_1-1_
  6
CONTINUOUS
 62
    7
 10
245.71971996410474
 20
167.13790481154984
 40
0.0608883012790937
  0
CIRCLE
  8
_1-1_
  6
CONTINUOUS
 62
    7
 10
246.00462217588685
 20
167.53132175754857
 40
0.0608883012790937
  0
CIRCLE
  8
_1-1_
  6
CONTINUOUS
 62
    7
 10
245.02609665329393
 20
167.83500465186867
 40
0.0608883012790937
  0
CIRCLE
  8
_1-1_
  6
CONTINUOUS
 62
    7
 10
247.83597379117401
 20
167.29913659997891
 40
0.0608883012790937
  0
CIRCLE
  8
_1-1_
  6
CONTINUOUS
 62
    7
 10
247.89234058277029
 20
167.00695965741133
 40
0.0608883012790937
  0
CIRCLE
  8
_1-1_
  6
CONTINUOUS
 62
    7
 10
246.91381506017737
 20
167.31064255173143
 40
0.0608883012790937
  0
CIRCLE
  8
_1-1_
  6
CONTINUOUS
 62
    7
 10
244.35637602934969
 20
168.6061261151288
 40
0.0608883012790937
  0
CIRCLE
  8
_1-1_
  6
CONTINUOUS
 62
    7
 10
243.89932993296031
 20
167.46347375818203
 40
0.0608883012790937
  0
CIRCLE
  8
_1-1_
  6
CONTINUOUS
 62
    7
 10
245.2149179819468
 20
167.71732227222341
 40
0.0608883012790937
  0
CIRCLE
  8
_1-1_
  6
CONTINUOUS
 62
    7
 10
245.31614561338685
 20
168.12223279798354
 40
0.0608883012790937
  0
CIRCLE
  8
_1-1_
  6
CONTINUOUS
 62
    7
 10
244.64127824113177
 20
168.99954306112755
 40
0.0608883012790937
  0
CIRCLE
  8
_1-1_
  6
CONTINUOUS
 62
    7
 10
243.35602631440034
 20
170.60566257786107
 40
0.0608883012790937
  0
CIRCLE
  8
_1-1_
  6
CONTINUOUS
 62
    7
 10
243.77541206978464
 20
170.29558336412586
 40
0.0608883012790937
  0
CIRCLE
  8
_1-1_
  6
CONTINUOUS
 62
    7
 10
244.57528604043497
 20
169.49572176546664
 40
0.0608883012790937
  0
CIRCLE
  8
_1-1_
  6
CONTINUOUS
 62
    7
 10
242.6143501900338
 20
168.75492405247044
 40
0.0608883012790937
  0
CIRCLE
  8
_1-1_
  6
CONTINUOUS
 62
    7
 10
246.89619734480576
 20
170.67821193385768
 40
0.0608883012790937
  0
CIRCLE
  8
_1-1_
  6
CONTINUOUS
 62
    7
 10
246.43915124841641
 20
169.53555957691091
 40
0.0608883012790937
  0
CIRCLE
  8
_1-1_
  6
CONTINUOUS
 62
    7
 10
244.81752962679477
 20
169.47608741554055
 40
0.0608883012790937
  0
CIRCLE
  8
_1-1_
  6
CONTINUOUS
 62
    7
 10
244.58899420660896
 20
168.79049352697425
 40
0.0608883012790937
  0
CIRCLE
  8
_1-1_
  6
CONTINUOUS
 62
    7
 10
244.87389641839107
 20
169.18391047297297
 40
0.0608883012790937
  0
CIRCLE
  8
_1-1_
  6
CONTINUOUS
 62
    7
 10
243.89537089579815
 20
169.48759336729307
 40
0.0608883012790937
  0
CIRCLE
  8
_1-1_
  6
CONTINUOUS
 62
    7
 10
246.70524803367823
 20
168.95172531540331
 40
0.0608883012790937
  0
CIRCLE
  8
_1-1_
  6
CONTINUOUS
 62
    7
 10
246.76161482527451
 20
168.65954837283573
 40
0.0608883012790937
  0
CIRCLE
  8
_1-1_
  6
CONTINUOUS
 62
    7
 10
245.78308930268159
 20
168.96323126715583
 40
0.0608883012790937
  0
CIRCLE
  8
_1-1_
  6
CONTINUOUS
 62
    7
 10
243.22565027185391
 20
170.25871483055323
 40
0.0608883012790937
  0
CIRCLE
  8
_1-1_
  6
CONTINUOUS
 62
    7
 10
242.76860417546453
 20
169.11606247360643
 40
0.0608883012790937
  0
CIRCLE
  8
_1-1_
  6
CONTINUOUS
 62
    7
 10
244.08419222445102
 20
169.36991098764781
 40
0.0608883012790937
  0
CIRCLE
  8
_1-1_
  6
CONTINUOUS
 62
    7
 10
244.18541985589107
 20
169.77482151340794
 40
0.0608883012790937
  0
CIRCLE
  8
_1-1_
  6
CONTINUOUS
 62
    7
 10
243.51055248363599
 20
170.65213177655195
 40
0.0608883012790937
  0
CIRCLE
  8
_1-1_
  6
CONTINUOUS
 62
    7
 10
240.65969931112755
 20
171.04055043813347
 40
0.0608883012790937
  0
CIRCLE
  8
_1-1_
  6
CONTINUOUS
 62
    7
 10
241.07908506651185
 20
170.73047122439823
 40
0.0608883012790937
  0
CIRCLE
  8
_1-1_
  6
CONTINUOUS
 62
    7
 10
241.87895903716216
 20
169.93060962573904
 40
0.0608883012790937
  0
CIRCLE
  8
_1-1_
  6
CONTINUOUS
 62
    7
 10
239.91802318676099
 20
169.18981191274284
 40
0.0608883012790937
  0
CIRCLE
  8
_1-1_
  6
CONTINUOUS
 62
    7
 10
244.19987034153294
 20
171.11309979413008
 40
0.0608883012790937
  0
CIRCLE
  8
_1-1_
  6
CONTINUOUS
 62
    7
 10
243.74282424514359
 20
169.97044743718328
 40
0.0608883012790937
  0
CIRCLE
  8
_1-1_
  6
CONTINUOUS
 62
    7
 10
242.12120262352198
 20
169.91097527581294
 40
0.0608883012790937
  0
CIRCLE
  8
_1-1_
  6
CONTINUOUS
 62
    7
 10
241.89266720333617
 20
169.22538138724664
 40
0.0608883012790937
  0
CIRCLE
  8
_1-1_
  6
CONTINUOUS
 62
    7
 10
242.17756941511826
 20
169.61879833324537
 40
0.0608883012790937
  0
CIRCLE
  8
_1-1_
  6
CONTINUOUS
 62
    7
 10
241.19904389252534
 20
169.92248122756547
 40
0.0608883012790937
  0
CIRCLE
  8
_1-1_
  6
CONTINUOUS
 62
    7
 10
244.00892103040542
 20
169.38661317567568
 40
0.0608883012790937
  0
CIRCLE
  8
_1-1_
  6
CONTINUOUS
 62
    7
 10
244.06528782200169
 20
169.09443623310813
 40
0.0608883012790937
  0
CIRCLE
  8
_1-1_
  6
CONTINUOUS
 62
    7
 10
243.0867622994088
 20
169.39811912742823
 40
0.0608883012790937
  0
CIRCLE
  8
_1-1_
  6
CONTINUOUS
 62
    7
 10
240.52932326858109
 20
170.6936026908256
 40
0.0608883012790937
  0
CIRCLE
  8
_1-1_
  6
CONTINUOUS
 62
    7
 10
240.07227717219175
 20
169.5509503338788
 40
0.0608883012790937
  0
CIRCLE
  8
_1-1_
  6
CONTINUOUS
 62
    7
 10
241.38786522117823
 20
169.80479884792018
 40
0.0608883012790937
  0
CIRCLE
  8
_1-1_
  6
CONTINUOUS
 62
    7
 10
241.48909285261826
 20
170.20970937368034
 40
0.0608883012790937
  0
CIRCLE
  8
_1-1_
  6
CONTINUOUS
 62
    7
 10
240.81422548036318
 20
171.08701963682432
 40
0.0608883012790937
  0
CIRCLE
  8
_1-1_
  6
CONTINUOUS
 62
    7
 10
240.48574911581505
 20
172.60616405590162
 40
0.0608883012790937
  0
CIRCLE
  8
_1-1_
  6
CONTINUOUS
 62
    7
 10
240.90513487119935
 20
172.29608484216641
 40
0.0608883012790937
  0
CIRCLE
  8
_1-1_
  6
CONTINUOUS
 62
    7
 10
241.70500884184966
 20
171.49622324350719
 40
0.0608883012790937
  0
CIRCLE
  8
_1-1_
  6
CONTINUOUS
 62
    7
 10
239.74407299144849
 20
170.75542553051099
 40
0.0608883012790937
  0
CIRCLE
  8
_1-1_
  6
CONTINUOUS
 62
    7
 10
244.02592014622044
 20
172.67871341189823
 40
0.0608883012790937
  0
CIRCLE
  8
_1-1_
  6
CONTINUOUS
 62
    7
 10
243.56887404983109
 20
171.53606105495143
 40
0.0608883012790937
  0
CIRCLE
  8
_1-1_
  6
CONTINUOUS
 62
    7
 10
241.94725242820948
 20
171.47658889358109
 40
0.0608883012790937
  0
CIRCLE
  8
_1-1_
  6
CONTINUOUS
 62
    7
 10
241.71871700802367
 20
170.79099500501479
 40
0.0608883012790937
  0
CIRCLE
  8
_1-1_
  6
CONTINUOUS
 62
    7
 10
242.00361921980576
 20
171.18441195101352
 40
0.0608883012790937
  0
CIRCLE
  8
_1-1_
  6
CONTINUOUS
 62
    7
 10
241.02509369721284
 20
171.48809484533362
 40
0.0608883012790937
  0
CIRCLE
  8
_1-1_
  6
CONTINUOUS
 62
    7
 10
243.83497083509292
 20
170.95222679344386
 40
0.0608883012790937
  0
CIRCLE
  8
_1-1_
  6
CONTINUOUS
 62
    7
 10
243.89133762668919
 20
170.66004985087628
 40
0.0608883012790937
  0
CIRCLE
  8
_1-1_
  6
CONTINUOUS
 62
    7
 10
242.9128121040963
 20
170.96373274519638
 40
0.0608883012790937
  0
CIRCLE
  8
_1-1_
  6
CONTINUOUS
 62
    7
 10
240.35537307326859
 20
172.25921630859375
 40
0.0608883012790937
  0
CIRCLE
  8
_1-1_
  6
CONTINUOUS
 62
    7
 10
239.89832697687925
 20
171.11656395164698
 40
0.0608883012790937
  0
CIRCLE
  8
_1-1_
  6
CONTINUOUS
 62
    7
 10
241.21391502586573
 20
171.37041246568836
 40
0.0608883012790937
  0
CIRCLE
  8
_1-1_
  6
CONTINUOUS
 62
    7
 10
241.31514265730576
 20
171.77532299144849
 40
0.0608883012790937
  0
CIRCLE
  8
_1-1_
  6
CONTINUOUS
 62
    7
 10
240.64027528505068
 20
172.6526332545925
 40
0.0608883012790937
  0
CIRCLE
  8
_1-1_
  6
CONTINUOUS
 62
    7
 10
250.22730646906675
 20
172.34522639094172
 40
0.0608883012790937
  0
CIRCLE
  8
_1-1_
  6
CONTINUOUS
 62
    7
 10
250.64669222445102
 20
172.03514717720651
 40
0.0608883012790937
  0
CIRCLE
  8
_1-1_
  6
CONTINUOUS
 62
    7
 10
251.44656619510135
 20
171.23528557854732
 40
0.0608883012790937
  0
CIRCLE
  8
_1-1_
  6
CONTINUOUS
 62
    7
 10
249.48563034470018
 20
170.49448786555109
 40
0.0608883012790937
  0
CIRCLE
  8
_1-1_
  6
CONTINUOUS
 62
    7
 10
253.76747749947214
 20
172.41777574693836
 40
0.0608883012790937
  0
CIRCLE
  8
_1-1_
  6
CONTINUOUS
 62
    7
 10
253.31043140308279
 20
171.27512338999156
 40
0.0608883012790937
  0
CIRCLE
  8
_1-1_
  6
CONTINUOUS
 62
    7
 10
251.68880978146117
 20
171.2156512286212
 40
0.0608883012790937
  0
CIRCLE
  8
_1-1_
  6
CONTINUOUS
 62
    7
 10
251.46027436127534
 20
170.5300573400549
 40
0.0608883012790937
  0
CIRCLE
  8
_1-1_
  6
CONTINUOUS
 62
    7
 10
251.74517657305745
 20
170.92347428605365
 40
0.0608883012790937
  0
CIRCLE
  8
_1-1_
  6
CONTINUOUS
 62
    7
 10
250.76665105046453
 20
171.22715718037375
 40
0.0608883012790937
  0
CIRCLE
  8
_1-1_
  6
CONTINUOUS
 62
    7
 10
253.57652818834461
 20
170.69128912848396
 40
0.0608883012790937
  0
CIRCLE
  8
_1-1_
  6
CONTINUOUS
 62
    7
 10
253.63289497994089
 20
170.39911218591641
 40
0.0608883012790937
  0
CIRCLE
  8
_1-1_
  6
CONTINUOUS
 62
    7
 10
252.654369457348
 20
170.70279508023648
 40
0.0608883012790937
  0
CIRCLE
  8
_1-1_
  6
CONTINUOUS
 62
    7
 10
250.09693042652029
 20
171.99827864363388
 40
0.0608883012790937
  0
CIRCLE
  8
_1-1_
  6
CONTINUOUS
 62
    7
 10
249.63988433013094
 20
170.85562628668708
 40
0.0608883012790937
  0
CIRCLE
  8
_1-1_
  6
CONTINUOUS
 62
    7
 10
250.95547237911742
 20
171.10947480072846
 40
0.0608883012790937
  0
CIRCLE
  8
_1-1_
  6
CONTINUOUS
 62
    7
 10
251.05670001055745
 20
171.51438532648859
 40
0.0608883012790937
  0
CIRCLE
  8
_1-1_
  6
CONTINUOUS
 62
    7
 10
250.38183263830237
 20
172.3916955896326
 40
0.0608883012790937
  0
CIRCLE
  8
_1-1_
  6
CONTINUOUS
 62
    7
 10
252.05385775179477
 20
172.43220148859797
 40
0.0608883012790937
  0
CIRCLE
  8
_1-1_
  6
CONTINUOUS
 62
    7
 10
252.47324350717906
 20
172.12212227486276
 40
0.0608883012790937
  0
CIRCLE
  8
_1-1_
  6
CONTINUOUS
 62
    7
 10
253.2731174778294
 20
171.32226067620357
 40
0.0608883012790937
  0
CIRCLE
  8
_1-1_
  6
CONTINUOUS
 62
    7
 10
251.31218162742823
 20
170.58146296320734
 40
0.0608883012790937
  0
CIRCLE
  8
_1-1_
  6
CONTINUOUS
 62
    7
 10
253.51536106418919
 20
171.30262632627745
 40
0.0608883012790937
  0
CIRCLE
  8
_1-1_
  6
CONTINUOUS
 62
    7
 10
253.28682564400339
 20
170.61703243771115
 40
0.0608883012790937
  0
CIRCLE
  8
_1-1_
  6
CONTINUOUS
 62
    7
 10
253.5717278557855
 20
171.0104493837099
 40
0.0608883012790937
  0
CIRCLE
  8
_1-1_
  6
CONTINUOUS
 62
    7
 10
252.59320233319258
 20
171.31413227803
 40
0.0608883012790937
  0
CIRCLE
  8
_1-1_
  6
CONTINUOUS
 62
    7
 10
254.48092074007602
 20
170.78977017789273
 40
0.0608883012790937
  0
CIRCLE
  8
_1-1_
  6
CONTINUOUS
 62
    7
 10
251.92348170924834
 20
172.08525374129013
 40
0.0608883012790937
  0
CIRCLE
  8
_1-1_
  6
CONTINUOUS
 62
    7
 10
251.46643561285896
 20
170.94260138434333
 40
0.0608883012790937
  0
CIRCLE
  8
_1-1_
  6
CONTINUOUS
 62
    7
 10
252.78202366184544
 20
171.19644989838471
 40
0.0608883012790937
  0
CIRCLE
  8
_1-1_
  6
CONTINUOUS
 62
    7
 10
252.8832512932855
 20
171.60136042414484
 40
0.0608883012790937
  0
CIRCLE
  8
_1-1_
  6
CONTINUOUS
 62
    7
 10
252.20838392103042
 20
172.47867068728885
 40
0.0608883012790937
  0
TEXT
  8
_0-0_
 62
    7
 10
141.89189395389042
 20
14.594594594594582
 40
2.5
 41
1
 50
0
  1
縮尺
  0
TEXT
  8
_0-0_
 62
    7
 10
377.10214563318203
 20
22.865493362014362
 40
2.5
 41
1
 50
0
  1
ＮＯ
  0
TEXT
  8
_1-0_
 62
    7
 10
169.90681828679266
 20
13.3181144095756
 40
2.5
 41
1
 50
0
  1
1/5
  0
TEXT
  8
_0-0_
 62
    7
 10
14.594594336844779
 20
24.324324324324323
 40
2.5
 41
1
 50
0
  1
Ｓ型
  0
TEXT
  8
_0-0_
 62
    7
 10
25.556194717819636
 20
20.211577544341225
 40
2.5
 41
1
 50
0
  1
木造
  0
TEXT
  8
_0-0_
 62
    7
 10
383.97877873601146
 20
17.689098667454061
 40
2.5
 41
1
 50
0
  1
Ｓ
  0
TEXT
  8
_1-3_
 62
    7
 10
97.713666348843958
 20
141.52874920819258
 40
2.5
 41
1
 50
0
  1
Ｓ型　桟瓦
  0
TEXT
  8
_0-0_
 62
    7
 10
394.90242210594386
 20
14.940521652634089
 40
2.5
 41
1
 50
0
  1
7
  0
TEXT
  8
_0-0_
 62
    7
 10
39.721903414339636
 20
15.395235628695104
 40
2.5
 41
1
 50
0
  1
壁際　3
  0
TEXT
  8
_1-1_
 62
    7
 10
218.29586132152662
 20
258.68183032886401
 40
2.5
 41
1
 50
0
  1
外壁
  0
TEXT
  8
_1-1_
 62
    7
 10
199.48938936800573
 20
231.98131664379224
 40
2.5
 41
1
 50
0
  1
雨押え板　15ｘ90
  0
TEXT
  8
_1-1_
 62
    7
 10
195.54235303724136
 20
213.40704840582771
 40
2.5
 41
1
 50
0
  1
水切り鉄板
  0
TEXT
  8
_1-1_
 62
    7
 10
283.98485338365708
 20
198.99838009396115
 40
2.5
 41
1
 50
90
  1
150
  0
TEXT
  8
_1-1_
 62
    7
 10
202.54304834314297
 20
205.04279059332771
 40
2.5
 41
1
 50
0
  1
のし瓦
  0
POINT
  8
_1-1_
 62
    7
 10
284.48485503325594
 20
185.87339246595229
  0
POINT
  8
_1-1_
 62
    7
 10
284.48485503325594
 20
215.87338009396117
  0
POINT
  8
_1-1_
 62
    7
 10
284.48485503325594
 20
215.87338009396117
  0
POINT
  8
_1-1_
 62
    7
 10
284.48485503325594
 20
225.87338009396117
  0
LINE
  8
_1-1_
  6
CONTINUOUS
 62
    7
 10
284.48485503325594
 20
215.87338009396117
 11
266.47658064558703
 21
215.87338009396117
  0
LINE
  8
_1-1_
  6
CONTINUOUS
 62
    7
 10
284.48485503325594
 20
225.87338009396117
 11
266.47658064558703
 21
225.87338009396117
  0
LINE
  8
_1-1_
  6
CONTINUOUS
 62
    7
 10
284.48485503325594
 20
215.87338009396117
 11
284.48485503325594
 21
225.87338009396117
  0
TEXT
  8
_1-1_
 62
    7
 10
283.98485503325594
 20
219.62338009396117
 40
2.5
 41
1
 50
90
  1
50
  0
POINT
  8
_1-1_
 62
    7
 10
311.73750903236703
 20
225.87338009396117
  0
POINT
  8
_1-1_
 62
    7
 10
311.73750903236703
 20
152.29338362410263
  0
LINE
  8
_1-1_
  6
CONTINUOUS
 62
    7
 10
311.73750903236703
 20
225.87338009396117
 11
266.47658064558703
 21
225.87338009396117
  0
LINE
  8
_1-1_
  6
CONTINUOUS
 62
    7
 10
311.73750903236703
 20
152.29338362410263
 11
266.47658064558703
 21
152.29338362410263
  0
TEXT
  8
_1-1_
 62
    7
 10
312.84448271184192
 20
174.7877179188319
 40
2.5
 41
1
 50
0
  1
下葺き材立上がり寸法
  0
LINE
  8
_1-1_
  6
CONTINUOUS
 62
    7
 10
311.73750903236703
 20
225.87338009396117
 11
311.73750903236703
 21
152.29338362410263
  0
TEXT
  8
_1-1_
 62
    7
 10
311.23750903236703
 20
185.3333818590319
 40
2.5
 41
1
 50
90
  1
300　以上
  0
TEXT
  8
_1-1_
 62
    7
 10
288.68924160580923
 20
259.21223267386569
 40
3
 41
1
 50
0
  1
下葺き材立上げ長さは、300ｍｍ以上かつ
  0
TEXT
  8
_1-1_
 62
    7
 10
289.07586467907777
 20
253.56513629770433
 40
3
 41
1
 50
0
  1
雨押え板上端より50mm以上とする
  0
LINE
  8
_1-1_
  6
CONTINUOUS
 62
    7
 10
284.48485503325594
 20
196.65442024861375
 11
293.85484564338316
 21
231.62370127205187
  0
LINE
  8
_1-1_
  6
CONTINUOUS
 62
    7
 10
284.48485503325594
 20
220.19387636827133
 11
289.40569606929864
 21
238.55870513075251
  0
LINE
  8
_1-1_
  6
CONTINUOUS
 62
    7
 10
289.40569606929864
 20
238.55870513075251
 11
292.26372573719345
 21
238.55870513075251
  0
LINE
  8
_1-1_
  6
CONTINUOUS
 62
    7
 10
293.85484564338316
 20
231.62370127205187
 11
296.49394658375809
 21
231.62370127205187
  0
TEXT
  8
_1-1_
 62
    7
 10
293.25907181873805
 20
235.02650463315439
 40
2.5
 41
1
 50
0
  1
50ｍｍ以上
  0
TEXT
  8
_1-1_
 62
    7
 10
292.88581703815885
 20
238.13696113798136
 40
2.5
 41
1
 50
0
  1
水切鉄板上端より
  0
TEXT
  8
_1-1_
 62
    7
 10
298.73347526723347
 20
230.29861074581743
 40
2.5
 41
1
 50
0
  1
水切り鉄板立上がり寸法
  0
LINE
  8
_1-0_
  6
CONTINUOUS
 62
    7
 10
104.97115999585338
 20
86.398257509511907
 11
103.49384527879258
 21
89.681177728314694
  0
LINE
  8
_1-0_
  6
CONTINUOUS
 62
    7
 10
103.49384527879258
 20
89.681177728314694
 11
107.87106811319924
 21
91.650922436401686
  0
LINE
  8
_1-0_
  6
CONTINUOUS
 62
    7
 10
107.87106811319924
 20
91.650922436401686
 11
109.34838283026006
 21
88.3680022175989
  0
LINE
  8
_1-0_
  6
CONTINUOUS
 62
    7
 10
109.34838283026006
 20
88.3680022175989
 11
104.97115999585338
 21
86.398257509511907
  0
LINE
  8
_1-0_
  6
CONTINUOUS
 62
    7
 10
103.49384527879258
 20
89.681177728314694
 11
109.34838283026006
 21
88.3680022175989
  0
LINE
  8
_1-0_
  6
CONTINUOUS
 62
    7
 10
155.29098009060635
 20
112.98988530063311
 11
156.76829480766716
 21
109.70696508183032
  0
LINE
  8
_1-0_
  6
CONTINUOUS
 62
    7
 10
156.76829480766716
 20
109.70696508183032
 11
152.39105960126935
 21
107.73722037374333
  0
LINE
  8
_1-0_
  6
CONTINUOUS
 62
    7
 10
202.71089206801344
 20
134.32884816486455
 11
204.18820678507424
 21
131.04592794606174
  0
LINE
  8
_1-0_
  6
CONTINUOUS
 62
    7
 10
204.18820678507424
 20
131.04592794606174
 11
199.81097157867646
 21
129.07618323797476
  0
LINE
  8
_1-2_
  6
CONTINUOUS
 62
    3
 10
108.96962669375246
 20
89.409711498901686
 11
110.78917542949992
 21
90.02153120434933
  0
LINE
  8
ADD_LINE
  6
DOT
 62
    7
 10
107.30935497183522
 20
94.653975843813001
 11
107.13666671961816
 21
95.228902271705749
  0
LINE
  8
_1-2_
  6
CONTINUOUS
 62
    3
 10
107.13666671961816
 20
95.228902271705749
 11
107.30935497183522
 21
94.653975843813001
  0
LINE
  8
_1-2_
  6
CONTINUOUS
 62
    3
 10
108.17287046486732
 20
91.779269472402532
 11
108.97220006790786
 21
89.402053236391126
  0
LINE
  8
_1-2_
  6
CONTINUOUS
 62
    3
 10
107.13666671961816
 20
95.228902271705749
 11
109.03336719206327
 21
95.866678414547806
  0
LINE
  8
_1-2_
  6
CONTINUOUS
 62
    3
 10
110.78917542949992
 20
90.02153120434933
 11
109.03336719206327
 21
95.866678414547806
  0
LINE
  8
_1-0_
  6
CONTINUOUS
 62
    7
 10
155.29098009060635
 20
112.98987292864197
 11
156.76829480766716
 21
109.70695270983919
  0
LINE
  8
_1-0_
  6
CONTINUOUS
 62
    7
 10
156.76829480766716
 20
109.70695270983919
 11
152.39105960126935
 21
107.73720800175219
  0
LINE
  8
_1-2_
  6
CONTINUOUS
 62
    3
 10
156.38045762966885
 20
110.74533392552753
 11
158.19461217728286
 21
111.37300215161495
  0
LINE
  8
ADD_LINE
  6
DOT
 62
    7
 10
154.67450851649318
 20
115.97491271696546
 11
154.49677249189435
 21
116.54830501795786
  0
LINE
  8
_1-2_
  6
CONTINUOUS
 62
    3
 10
154.49677249189435
 20
116.54830501795786
 11
154.67450851649318
 21
115.97491271696546
  0
LINE
  8
_1-2_
  6
CONTINUOUS
 62
    3
 10
155.56306491957594
 20
113.10783986408327
 11
156.38310523577104
 21
110.73768803500811
  0
LINE
  8
_1-2_
  6
CONTINUOUS
 62
    3
 10
99.919539924854647
 20
93.006991640371282
 11
100.67592634667686
 21
93.268708740772468
  0
LINE
  8
_1-2_
  6
CONTINUOUS
 62
    3
 10
101.83822542554088
 20
94.51957890414873
 11
155.56306491957594
 21
113.10783986408327
  0
LINE
  8
_1-2_
  6
CONTINUOUS
 62
    3
 10
100.81344102810634
 20
92.825073882769928
 11
100.67592634667686
 21
93.268708740772468
  0
LINE
  8
_1-2_
  6
CONTINUOUS
 62
    3
 10
100.06088992353497
 20
92.550898187299069
 11
99.919539924854647
 21
93.006991640371282
  0
LINE
  8
_1-2_
  6
CONTINUOUS
 62
    3
 10
101.54263381342095
 20
92.858837046568496
 11
101.06988766028539
 21
92.695254579824407
  0
LINE
  8
_1-2_
  6
CONTINUOUS
 62
    3
 10
101.66827138336394
 20
93.107043932653795
 11
101.46128797172965
 21
93.774933501910553
  0
LINE
  8
_1-2_
  6
CONTINUOUS
 62
    3
 10
99.462469084483033
 20
92.139108834469681
 11
99.935239981600844
 21
92.30269130121377
  0
LINE
  8
_1-2_
  6
CONTINUOUS
 62
    3
 10
154.67450851649318
 20
115.97491271696546
 11
97.942409138062004
 21
96.346154930859043
  0
LINE
  8
_1-2_
  6
CONTINUOUS
 62
    3
 10
99.206034824295102
 20
92.268915765424069
 11
97.942409138062004
 21
96.346154930859043
  0
LINE
  8
_1-2_
  6
CONTINUOUS
 62
    3
 10
158.19461217728286
 20
111.37300215161495
 11
156.38785608036562
 21
117.20261014095195
  0
LINE
  8
_1-2_
  6
CONTINUOUS
 62
    7
 10
97.942409138062004
 20
96.346154930859043
 11
93.234000473049335
 21
109.95462760030583
  0
LINE
  8
_1-0_
  6
CONTINUOUS
 62
    7
 10
152.39105960126935
 20
107.73722037374333
 11
150.93089246391716
 21
110.9820719758337
  0
LINE
  8
_1-0_
  6
CONTINUOUS
 62
    7
 10
152.39105960126935
 20
107.73720800175219
 11
150.93086771993489
 21
110.98205960384257
  0
LINE
  8
_1-0_
  6
CONTINUOUS
 62
    7
 10
150.93089246391716
 20
110.9820719758337
 11
156.76829480766716
 21
109.70696508183032
  0
LINE
  8
_1-2_
  6
CONTINUOUS
 62
    7
 10
109.03336719206327
 20
95.866678414547806
 11
108.68930211868911
 21
96.889978173046543
  0
LINE
  8
_1-0_
  6
CONTINUOUS
 62
    7
 10
107.13666671961816
 20
95.228902271705749
 11
106.8308558428234
 21
96.246981049946882
  0
LINE
  8
_1-0_
  6
CONTINUOUS
 62
    7
 10
202.71089206801344
 20
134.32884816486455
 11
204.18820678507424
 21
131.04592794606174
  0
LINE
  8
_1-0_
  6
CONTINUOUS
 62
    7
 10
204.18820678507424
 20
131.04592794606174
 11
199.81097157867646
 21
129.07618323797476
  0
LINE
  8
_1-0_
  6
CONTINUOUS
 62
    7
 10
202.71089206801344
 20
134.32883579287341
 11
204.18820678507424
 21
131.04591557407059
  0
LINE
  8
_1-0_
  6
CONTINUOUS
 62
    7
 10
204.18820678507424
 20
131.04591557407059
 11
199.81097157867646
 21
129.07617086598361
  0
LINE
  8
_1-2_
  6
CONTINUOUS
 62
    3
 10
203.80036960707594
 20
132.08429678975898
 11
205.61452415468997
 21
132.71196501584637
  0
LINE
  8
ADD_LINE
  6
DOT
 62
    7
 10
202.09442049390026
 20
137.3138755811969
 11
201.91668446930146
 21
137.88726788218929
  0
LINE
  8
_1-2_
  6
CONTINUOUS
 62
    3
 10
201.91668446930146
 20
137.88726788218929
 11
202.09442049390026
 21
137.3138755811969
  0
LINE
  8
_1-2_
  6
CONTINUOUS
 62
    3
 10
202.98297689698305
 20
134.44680272831471
 11
203.80301721317812
 21
132.07665089923955
  0
LINE
  8
_1-2_
  6
CONTINUOUS
 62
    3
 10
147.33945190226174
 20
114.3459545046027
 11
148.0958506960751
 21
114.60767160500389
  0
LINE
  8
_1-2_
  6
CONTINUOUS
 62
    3
 10
149.25812503095685
 20
115.85854176838015
 11
202.98297689698305
 21
134.44680272831471
  0
LINE
  8
_1-2_
  6
CONTINUOUS
 62
    3
 10
148.23335300551344
 20
114.16403674700135
 11
148.0958506960751
 21
114.60767160500389
  0
LINE
  8
_1-2_
  6
CONTINUOUS
 62
    3
 10
147.4808142729332
 20
113.88986105153049
 11
147.33945190226174
 21
114.3459545046027
  0
LINE
  8
_1-2_
  6
CONTINUOUS
 62
    3
 10
148.96253341883693
 20
114.19779991079992
 11
148.4897996376925
 21
114.03421744405583
  0
LINE
  8
_1-2_
  6
CONTINUOUS
 62
    3
 10
149.08818336077104
 20
114.44600679688521
 11
148.88119994913674
 21
115.11389636614197
  0
LINE
  8
_1-2_
  6
CONTINUOUS
 62
    3
 10
146.88238106189013
 20
113.4780716987011
 11
147.35516433099909
 21
113.64165416544519
  0
LINE
  8
_1-2_
  6
CONTINUOUS
 62
    3
 10
146.62595917369333
 20
113.60787862965549
 11
145.36233348746023
 21
117.68511779509046
  0
LINE
  8
_1-2_
  6
CONTINUOUS
 62
    3
 10
205.61452415468997
 20
132.71196501584637
 11
203.80776805777273
 21
138.54157300518335
  0
LINE
  8
_1-2_
  6
CONTINUOUS
 62
    7
 10
145.36233348746023
 20
117.68511779509046
 11
140.65390007846528
 21
131.29359046453726
  0
LINE
  8
_1-0_
  6
CONTINUOUS
 62
    7
 10
199.81097157867646
 20
129.07618323797476
 11
198.35080444132424
 21
132.32103484006512
  0
LINE
  8
_1-0_
  6
CONTINUOUS
 62
    7
 10
199.81097157867646
 20
129.07617086598361
 11
198.35077969734198
 21
132.32102246807398
  0
LINE
  8
_1-0_
  6
CONTINUOUS
 62
    7
 10
198.35077969734198
 20
132.32102246807398
 11
202.68231276849909
 21
134.31582045820278
  0
LINE
  8
_1-0_
  6
CONTINUOUS
 62
    7
 10
198.35080444132424
 20
132.32103484006512
 11
204.18820678507424
 21
131.04592794606174
  0
LINE
  8
_1-0_
  6
CONTINUOUS
 62
    7
 10
250.13082878940281
 20
155.66782340108711
 11
251.60814350646362
 21
152.38489081029314
  0
LINE
  8
_1-0_
  6
CONTINUOUS
 62
    7
 10
251.60814350646362
 20
152.38489081029314
 11
247.23090830006581
 21
150.41514610220617
  0
LINE
  8
_1-0_
  6
CONTINUOUS
 62
    7
 10
250.13082878940281
 20
155.66779865710481
 11
251.60814350646362
 21
152.38489081029314
  0
LINE
  8
ADD_LINE
  6
DOT
 62
    7
 10
253.03446087607932
 20
154.05092788007778
 11
249.59383488632002
 21
165.15248873047898
  0
LINE
  8
_1-2_
  6
CONTINUOUS
 62
    3
 10
251.22030632846531
 20
153.42324728199924
 11
253.03446087607932
 21
154.05092788007778
  0
LINE
  8
ADD_LINE
  6
DOT
 62
    7
 10
249.51435721528964
 20
158.6528384454283
 11
249.33662119069081
 21
159.2262307464207
  0
LINE
  8
_1-2_
  6
CONTINUOUS
 62
    3
 10
249.33662119069081
 20
159.2262307464207
 11
249.51435721528964
 21
158.6528384454283
  0
LINE
  8
_1-2_
  6
CONTINUOUS
 62
    3
 10
250.40291361837239
 20
155.78575322055497
 11
251.2229539345675
 21
153.41562613546211
  0
LINE
  8
_1-2_
  6
CONTINUOUS
 62
    3
 10
194.75938862365112
 20
135.68491736883414
 11
195.51576267348219
 21
135.94663446923533
  0
LINE
  8
_1-2_
  6
CONTINUOUS
 62
    3
 10
196.67808649632846
 20
137.19750463261158
 11
250.40291361837239
 21
155.78575322055497
  0
LINE
  8
_1-2_
  6
CONTINUOUS
 62
    3
 10
195.65328972690281
 20
135.50299961123278
 11
195.51576267348219
 21
135.94663446923533
  0
LINE
  8
_1-2_
  6
CONTINUOUS
 62
    3
 10
194.90072625034031
 20
135.22882391576189
 11
194.75938862365112
 21
135.68491736883414
  0
LINE
  8
_1-2_
  6
CONTINUOUS
 62
    3
 10
196.38249488420854
 20
135.53676277503132
 11
195.90973635908185
 21
135.37318030828726
  0
LINE
  8
_1-2_
  6
CONTINUOUS
 62
    3
 10
196.50812008216039
 20
135.78496966111663
 11
196.30113667052612
 21
136.45285923037341
  0
LINE
  8
_1-2_
  6
CONTINUOUS
 62
    3
 10
194.30231778327948
 20
134.81703456293252
 11
194.77507630840617
 21
134.98061702967658
  0
LINE
  8
_1-2_
  6
CONTINUOUS
 62
    3
 10
249.51435721528964
 20
158.6528384454283
 11
192.78224546486732
 21
139.0240806593219
  0
LINE
  8
_1-2_
  6
CONTINUOUS
 62
    3
 10
194.04587115110044
 20
134.94684149388689
 11
192.78224546486732
 21
139.0240806593219
  0
LINE
  8
_1-2_
  6
CONTINUOUS
 62
    3
 10
249.33662119069081
 20
159.2262307464207
 11
251.22770477916208
 21
159.88053586941476
  0
LINE
  8
_1-2_
  6
CONTINUOUS
 62
    3
 10
253.03446087607932
 20
154.05092788007778
 11
251.22770477916208
 21
159.88053586941476
  0
LINE
  8
_1-2_
  6
CONTINUOUS
 62
    7
 10
192.78224546486732
 20
139.0240806593219
 11
188.07386154383693
 21
152.63255332876867
  0
LINE
  8
_1-2_
  6
CONTINUOUS
 62
    7
 10
250.69457093731242
 20
161.60078700433877
 11
191.99751481136227
 21
141.29216356156007
  0
LINE
  8
_1-0_
  6
CONTINUOUS
 62
    7
 10
247.23090830006581
 20
150.41514610220617
 11
245.77074116271362
 21
153.65999770429653
  0
LINE
  8
_1-0_
  6
CONTINUOUS
 62
    7
 10
247.23090830006581
 20
150.41512135822393
 11
245.77071641873135
 21
153.65999770429653
  0
LINE
  8
_1-0_
  6
CONTINUOUS
 62
    7
 10
245.77074116271362
 20
153.65999770429653
 11
251.60814350646362
 21
152.38489081029314
  0
LINE
  8
_1-2_
  6
CONTINUOUS
 62
    7
 10
142.17793143403961
 20
126.88876571791563
 11
93.234000473049335
 21
109.95462760030583
  0
LINE
  8
_1-2_
  6
CONTINUOUS
 62
    7
 10
156.38785608036562
 20
117.20261014095195
 11
156.0409207050489
 21
118.2053105342163
  0
LINE
  8
_1-2_
  6
CONTINUOUS
 62
    3
 10
154.49677249189435
 20
116.54830501795786
 11
156.38788082434789
 21
117.20261014095195
  0
LINE
  8
ADD_LINE
  6
DOT
 62
    7
 10
158.19461217728286
 20
111.37300215161495
 11
156.38788082434789
 21
117.20261014095195
  0
LINE
  8
_1-2_
  6
CONTINUOUS
 62
    7
 10
154.49677249189435
 20
116.54830501795786
 11
154.18249917316547
 21
117.56232578310777
  0
LINE
  8
_1-2_
  6
CONTINUOUS
 62
    7
 10
146.03202936742221
 20
115.52428768397348
 11
97.157678484556925
 21
98.614237833097206
  0
LINE
  8
ADD_LINE
  6
DOT
 62
    7
 10
205.61452415468997
 20
132.71196501584637
 11
203.807792801755
 21
138.54157300518335
  0
LINE
  8
_1-2_
  6
CONTINUOUS
 62
    3
 10
201.91668446930146
 20
137.88726788218929
 11
203.807792801755
 21
138.54157300518335
  0
LINE
  8
_1-2_
  6
CONTINUOUS
 62
    7
 10
189.59786815542898
 20
148.22772858214705
 11
140.65390007846528
 21
131.29359046453726
  0
LINE
  8
_1-2_
  6
CONTINUOUS
 62
    7
 10
203.80776805777273
 20
138.54157300518335
 11
203.46083268245602
 21
139.54427339844773
  0
LINE
  8
_1-2_
  6
CONTINUOUS
 62
    7
 10
193.45194134482932
 20
136.86326292019601
 11
144.57760283395515
 21
119.95320069732864
  0
LINE
  8
_1-0_
  6
CONTINUOUS
 62
    7
 10
245.77071641873135
 20
153.65999770429653
 11
250.13075455745602
 21
155.66792237701611
  0
LINE
  8
_1-0_
  6
CONTINUOUS
 62
    7
 10
250.13075455745602
 20
155.66792237701611
 11
251.60811876248135
 21
152.38489081029314
  0
LINE
  8
_1-0_
  6
CONTINUOUS
 62
    7
 10
251.60811876248135
 20
152.38489081029314
 11
247.25310365215617
 21
150.42514267104065
  0
LINE
  8
_1-0_
  6
CONTINUOUS
 62
    7
 10
247.25310365215617
 20
150.42514267104065
 11
247.23088355608354
 21
150.41514610220617
  0
LINE
  8
_1-0_
  6
CONTINUOUS
 62
    7
 10
150.93086771993489
 20
110.98205960384257
 11
155.29095534662409
 21
112.9899966485533
  0
LINE
  8
_1-0_
  6
CONTINUOUS
 62
    7
 10
77.466677211066639
 20
74.021237163360098
 11
247.25582549020515
 21
150.42635512617153
  0
LINE
  8
_1-2_
  6
CONTINUOUS
 62
    3
 10
77.466677211066639
 20
81.454372737288509
 11
108.17287046486732
 21
91.779269472402532
  0
LINE
  8
_1-2_
  6
CONTINUOUS
 62
    7
 10
98.608900672320871
 20
94.260509409849746
 11
77.466677211066639
 21
87.151476701604395
  0
LINE
  8
_1-2_
  6
CONTINUOUS
 62
    7
 10
94.868105433722889
 20
105.66288285262846
 11
77.466677211066639
 21
99.811685738766556
  0
LINE
  8
_1-2_
  6
CONTINUOUS
 62
    7
 10
213.6934591077094
 20
161.49668907095617
 11
188.07386154383693
 21
152.63255332876867
  0
LINE
  8
_1-4_
  6
CONTINUOUS
 62
    7
 10
213.6934591077094
 20
161.49668907095617
 11
247.14027109303456
 21
173.06897943993846
  0
LINE
  8
_1-4_
  6
CONTINUOUS
 62
    7
 10
251.22772952314435
 20
159.8805482414059
 11
247.14027109303456
 21
173.06897943993846
  0
LINE
  8
_1-2_
  6
CONTINUOUS
 62
    3
 10
202.09442049390026
 20
137.3138755811969
 11
145.36233348746023
 21
117.68511779509046
  0
LINE
  8
_1-2_
  6
CONTINUOUS
 62
    3
 10
107.30935497183522
 20
94.653975843813001
 11
77.466677211066639
 21
84.619437368570189
  0
ARC
  8
_1-2_
  6
CONTINUOUS
 62
    3
 10
102.03439571692601
 20
93.952558178589186
 40
0.599999959404404
 50
109.0858917236328
 51
197.21983337402344
  0
ARC
  8
_1-2_
  6
CONTINUOUS
 62
    3
 10
101.00450168715406
 20
92.884261488344251
 40
0.1999999904954755
 50
197.21757507324216
 51
289.0885009765625
  0
ARC
  8
_1-2_
  6
CONTINUOUS
 62
    3
 10
99.869829264487251
 20
92.49168583774248
 40
0.1999999904954755
 50
289.08401489257812
 51
17.217575073242223
  0
ARC
  8
_1-2_
  6
CONTINUOUS
 62
    3
 10
101.47722309630736
 20
93.047831583097206
 40
0.1999999904954755
 50
289.0885009765625
 51
17.219955444335916
  0
ARC
  8
_1-2_
  6
CONTINUOUS
 62
    3
 10
99.397070739360558
 20
92.328128114980657
 40
0.1999999904954755
 50
197.216552734375
 51
289.08514404296875
  0
ARC
  8
_1-2_
  6
CONTINUOUS
 62
    3
 10
149.45429532234198
 20
115.29152104282061
 40
0.599999959404404
 50
109.0858917236328
 51
197.21983337402344
  0
ARC
  8
_1-2_
  6
CONTINUOUS
 62
    3
 10
148.42440129257002
 20
114.22322435257567
 40
0.1999999904954755
 50
197.21757507324216
 51
289.0885009765625
  0
ARC
  8
_1-2_
  6
CONTINUOUS
 62
    3
 10
147.28974124189435
 20
113.8306487019739
 40
0.1999999904954755
 50
289.08401489257812
 51
17.217575073242223
  0
ARC
  8
_1-2_
  6
CONTINUOUS
 62
    3
 10
148.89713507371445
 20
114.38679444732863
 40
0.1999999904954755
 50
289.0885009765625
 51
17.219955444335916
  0
ARC
  8
_1-2_
  6
CONTINUOUS
 62
    3
 10
146.81698271676765
 20
113.66709097921208
 40
0.1999999904954755
 50
197.216552734375
 51
289.08514404296875
  0
ARC
  8
_1-2_
  6
CONTINUOUS
 62
    3
 10
196.87425678771362
 20
136.63048390705205
 40
0.599999959404404
 50
109.0858917236328
 51
197.21983337402344
  0
ARC
  8
_1-2_
  6
CONTINUOUS
 62
    3
 10
195.84436275794164
 20
135.5621872168071
 40
0.1999999904954755
 50
197.21757507324216
 51
289.0885009765625
  0
ARC
  8
_1-2_
  6
CONTINUOUS
 62
    3
 10
194.70967796328372
 20
135.16961156620533
 40
0.1999999904954755
 50
289.08401489257812
 51
17.217575073242223
  0
ARC
  8
_1-2_
  6
CONTINUOUS
 62
    3
 10
196.3170717951038
 20
135.72575731156007
 40
0.1999999904954755
 50
289.0885009765625
 51
17.219955444335916
  0
ARC
  8
_1-2_
  6
CONTINUOUS
 62
    3
 10
194.23691943815703
 20
135.00605384344351
 40
0.1999999904954755
 50
197.216552734375
 51
289.08514404296875
  0
LINE
  8
_1-4_
  6
CONTINUOUS
 62
    3
 10
229.43227129440368
 20
172.71773262761559
 11
230.35749827920097
 21
167.39759086109322
  0
LINE
  8
_1-4_
  6
CONTINUOUS
 62
    3
 10
249.01228343545097
 20
179.77698044354676
 11
249.62910142531584
 21
176.23021514186814
  0
ARC
  8
_1-4_
  6
CONTINUOUS
 62
    3
 10
256.75893145065368
 20
135.23354403228197
 40
41.612016832506335
 50
99.86572265625
 51
129.38038635253903
  0
ARC
  8
_1-4_
  6
CONTINUOUS
 62
    3
 10
259.32149248580993
 20
120.49872529020004
 40
60.168024011560391
 50
99.86572265625
 51
119.78602600097656
  0
LINE
  8
_1-0_
  6
CONTINUOUS
 62
    7
 10
77.466677211066639
 20
69.634896171489316
 11
254.19552364864862
 21
149.16288547642813
  0
LINE
  8
_1-0_
  6
CONTINUOUS
 62
    7
 10
77.466677211066639
 20
72.26670942700558
 11
254.19552364864867
 21
151.79468071474389
  0
LINE
  8
_1-0_
  6
DASHED1
 62
    3
 10
77.466677211066639
 20
72.765424389526686
 11
253.84514885979732
 21
152.13571501206633
  0
LINE
  8
_1-1_
  6
DASHED1
 62
    3
 10
253.84514885979732
 20
152.13571501206633
 11
253.84514885979732
 21
225.87338009396117
  0
LINE
  8
_1-0_
  6
CONTINUOUS
 62
    7
 10
247.25582549020515
 20
150.42635512617153
 11
252.94903515556246
 21
152.9882953396984
  0
LINE
  8
_1-2_
  6
CONTINUOUS
 62
    7
 10
252.94903515556246
 20
152.9882953396984
 11
253.19524683995752
 21
152.44115831384278
  0
LINE
  8
_1-0_
  6
CONTINUOUS
 62
    7
 10
77.466677211066639
 20
73.363294674973261
 11
253.19524683995752
 21
152.44115831384278
  0
LINE
  8
_1-0_
  6
CONTINUOUS
 62
    7
 10
79.026904019798025
 20
57.676671431770302
 11
254.19552364864867
 21
136.50252883498734
  0
LINE
  8
_1-1_
  6
CONTINUOUS
 62
    7
 10
225.71091935441302
 20
158.9005588840794
 11
211.42916707344162
 21
198.13940976865442
  0
LINE
  8
_1-1_
  6
CONTINUOUS
 62
    7
 10
211.42916707344162
 20
198.13940976865442
 11
207.34789463889771
 21
198.13940976865442
  0
TEXT
  8
_1-1_
 62
    7
 10
195.79429010052141
 20
196.85153497980306
 40
2.5
 41
1
 50
0
  1
面土漆喰
  0
TEXT
  8
_1-1_
 62
    7
 10
199.10203265753157
 20
193.79534387048085
 40
2.5
 41
1
 50
0
  1
及び葺き土
  0
CIRCLE
  8
_1-1_
  6
CONTINUOUS
 62
    7
 10
239.3806094501374
 20
170.45975315447441
 40
0.0608883012790937
  0
CIRCLE
  8
_1-1_
  6
CONTINUOUS
 62
    7
 10
239.7999952055217
 20
170.14967394073918
 40
0.0608883012790937
  0
CIRCLE
  8
_1-1_
  6
CONTINUOUS
 62
    7
 10
239.25023340759097
 20
170.11280540716655
 40
0.0608883012790937
  0
CIRCLE
  8
_1-1_
  6
CONTINUOUS
 62
    7
 10
239.53513561937305
 20
170.5062223531653
 40
0.0608883012790937
  0
CIRCLE
  8
_1-1_
  6
CONTINUOUS
 62
    7
 10
238.66926944802591
 20
171.80226265616361
 40
0.0608883012790937
  0
CIRCLE
  8
_1-1_
  6
CONTINUOUS
 62
    7
 10
239.46914341867625
 20
171.00240105750439
 40
0.0608883012790937
  0
CIRCLE
  8
_1-1_
  6
CONTINUOUS
 62
    7
 10
239.71138700503604
 20
170.98276670757829
 40
0.0608883012790937
  0
CIRCLE
  8
_1-1_
  6
CONTINUOUS
 62
    7
 10
239.48285158485024
 20
170.29717281901199
 40
0.0608883012790937
  0
CIRCLE
  8
_1-1_
  6
CONTINUOUS
 62
    7
 10
239.76775379663235
 20
170.69058976501071
 40
0.0608883012790937
  0
CIRCLE
  8
_1-1_
  6
CONTINUOUS
 62
    7
 10
238.78922827403943
 20
170.99427265933082
 40
0.0608883012790937
  0
CIRCLE
  8
_1-1_
  6
CONTINUOUS
 62
    7
 10
238.11950765009519
 20
171.76539412259098
 40
0.0608883012790937
  0
CIRCLE
  8
_1-1_
  6
CONTINUOUS
 62
    7
 10
238.97804960269229
 20
170.87659027968556
 40
0.0608883012790937
  0
CIRCLE
  8
_1-1_
  6
CONTINUOUS
 62
    7
 10
239.07927723413235
 20
171.28150080544569
 40
0.0608883012790937
  0
CIRCLE
  8
_1-1_
  6
CONTINUOUS
 62
    7
 10
238.63668162338487
 20
171.47712672922103
 40
0.0608883012790937
  0
CIRCLE
  8
_1-1_
  6
CONTINUOUS
 62
    7
 10
238.9027784086467
 20
170.89329246771342
 40
0.0608883012790937
  0
CIRCLE
  8
_1-1_
  6
CONTINUOUS
 62
    7
 10
238.95914520024297
 20
170.60111552514587
 40
0.0608883012790937
  0
CIRCLE
  8
_1-1_
  6
CONTINUOUS
 62
    7
 10
237.98061967765008
 20
170.90479841946598
 40
0.0608883012790937
  0
CIRCLE
  8
_1-1_
  6
CONTINUOUS
 62
    7
 10
240.32920073716105
 20
167.81368272225058
 40
0.0608883012790937
  0
CIRCLE
  8
_1-1_
  6
CONTINUOUS
 62
    7
 10
240.74858649254534
 20
167.50360350851531
 40
0.0608883012790937
  0
CIRCLE
  8
_1-1_
  6
CONTINUOUS
 62
    7
 10
240.19882469461461
 20
167.46673497494271
 40
0.0608883012790937
  0
CIRCLE
  8
_1-1_
  6
CONTINUOUS
 62
    7
 10
240.4837269063967
 20
167.86015192094146
 40
0.0608883012790937
  0
CIRCLE
  8
_1-1_
  6
CONTINUOUS
 62
    7
 10
239.61786073504956
 20
169.15619222393974
 40
0.0608883012790937
  0
CIRCLE
  8
_1-1_
  6
CONTINUOUS
 62
    7
 10
240.4177347056999
 20
168.35633062528052
 40
0.0608883012790937
  0
CIRCLE
  8
_1-1_
  6
CONTINUOUS
 62
    7
 10
240.65997829205969
 20
168.33669627535443
 40
0.0608883012790937
  0
CIRCLE
  8
_1-1_
  6
CONTINUOUS
 62
    7
 10
240.43144287187388
 20
167.65110238678812
 40
0.0608883012790937
  0
CIRCLE
  8
_1-1_
  6
CONTINUOUS
 62
    7
 10
240.71634508365599
 20
168.04451933278688
 40
0.0608883012790937
  0
CIRCLE
  8
_1-1_
  6
CONTINUOUS
 62
    7
 10
239.73781956106308
 20
168.34820222710698
 40
0.0608883012790937
  0
CIRCLE
  8
_1-1_
  6
CONTINUOUS
 62
    7
 10
239.06809893711883
 20
169.11932369036714
 40
0.0608883012790937
  0
CIRCLE
  8
_1-1_
  6
CONTINUOUS
 62
    7
 10
239.92664088971594
 20
168.23051984746172
 40
0.0608883012790937
  0
CIRCLE
  8
_1-1_
  6
CONTINUOUS
 62
    7
 10
240.02786852115599
 20
168.63543037322182
 40
0.0608883012790937
  0
CIRCLE
  8
_1-1_
  6
CONTINUOUS
 62
    7
 10
239.58527291040852
 20
168.83105629699719
 40
0.0608883012790937
  0
CIRCLE
  8
_1-1_
  6
CONTINUOUS
 62
    7
 10
239.85136969567034
 20
168.24722203548959
 40
0.0608883012790937
  0
CIRCLE
  8
_1-1_
  6
CONTINUOUS
 62
    7
 10
239.90773648726662
 20
167.95504509292203
 40
0.0608883012790937
  0
CIRCLE
  8
_1-1_
  6
CONTINUOUS
 62
    7
 10
238.92921096467373
 20
168.25872798724214
 40
0.0608883012790937
  0
CIRCLE
  8
_1-1_
  6
CONTINUOUS
 62
    7
 10
240.97823688091407
 20
166.09124064844448
 40
0.0608883012790937
  0
CIRCLE
  8
_1-1_
  6
CONTINUOUS
 62
    7
 10
241.39762263629837
 20
165.78116143470925
 40
0.0608883012790937
  0
CIRCLE
  8
_1-1_
  6
CONTINUOUS
 62
    7
 10
240.84786083836764
 20
165.74429290113662
 40
0.0608883012790937
  0
CIRCLE
  8
_1-1_
  6
CONTINUOUS
 62
    7
 10
241.13276305014972
 20
166.13770984713537
 40
0.0608883012790937
  0
CIRCLE
  8
_1-1_
  6
CONTINUOUS
 62
    7
 10
240.26689687880258
 20
167.43375015013368
 40
0.0608883012790937
  0
CIRCLE
  8
_1-1_
  6
CONTINUOUS
 62
    7
 10
241.06677084945292
 20
166.63388855147446
 40
0.0608883012790937
  0
CIRCLE
  8
_1-1_
  6
CONTINUOUS
 62
    7
 10
241.30901443581271
 20
166.61425420154836
 40
0.0608883012790937
  0
CIRCLE
  8
_1-1_
  6
CONTINUOUS
 62
    7
 10
241.08047901562691
 20
165.92866031298206
 40
0.0608883012790937
  0
CIRCLE
  8
_1-1_
  6
CONTINUOUS
 62
    7
 10
241.36538122740902
 20
166.32207725898078
 40
0.0608883012790937
  0
CIRCLE
  8
_1-1_
  6
CONTINUOUS
 62
    7
 10
240.3868557048161
 20
166.62576015330089
 40
0.0608883012790937
  0
CIRCLE
  8
_1-1_
  6
CONTINUOUS
 62
    7
 10
239.71713508087186
 20
167.39688161656105
 40
0.0608883012790937
  0
CIRCLE
  8
_1-1_
  6
CONTINUOUS
 62
    7
 10
240.57567703346896
 20
166.50807777365563
 40
0.0608883012790937
  0
CIRCLE
  8
_1-1_
  6
CONTINUOUS
 62
    7
 10
240.67690466490902
 20
166.91298829941576
 40
0.0608883012790937
  0
CIRCLE
  8
_1-1_
  6
CONTINUOUS
 62
    7
 10
240.23430905416154
 20
167.1086142231911
 40
0.0608883012790937
  0
CIRCLE
  8
_1-1_
  6
CONTINUOUS
 62
    7
 10
240.50040583942337
 20
166.52477996168349
 40
0.0608883012790937
  0
CIRCLE
  8
_1-1_
  6
CONTINUOUS
 62
    7
 10
240.55677263101964
 20
166.23260301911594
 40
0.0608883012790937
  0
CIRCLE
  8
_1-1_
  6
CONTINUOUS
 62
    7
 10
239.57824710842675
 20
166.53628591343605
 40
0.0608883012790937
  0
CIRCLE
  8
_1-1_
  6
CONTINUOUS
 62
    7
 10
243.89889952780266
 20
166.3658328631092
 40
0.0608883012790937
  0
CIRCLE
  8
_1-1_
  6
CONTINUOUS
 62
    7
 10
244.31828528318695
 20
166.05575364937397
 40
0.0608883012790937
  0
CIRCLE
  8
_1-1_
  6
CONTINUOUS
 62
    7
 10
243.76852348525622
 20
166.01888511580134
 40
0.0608883012790937
  0
CIRCLE
  8
_1-1_
  6
CONTINUOUS
 62
    7
 10
244.05342569703831
 20
166.41230206180009
 40
0.0608883012790937
  0
CIRCLE
  8
_1-1_
  6
CONTINUOUS
 62
    7
 10
243.18755952569117
 20
167.7083423647984
 40
0.0608883012790937
  0
CIRCLE
  8
_1-1_
  6
CONTINUOUS
 62
    7
 10
243.98743349634151
 20
166.90848076613918
 40
0.0608883012790937
  0
CIRCLE
  8
_1-1_
  6
CONTINUOUS
 62
    7
 10
244.2296770827013
 20
166.88884641621308
 40
0.0608883012790937
  0
CIRCLE
  8
_1-1_
  6
CONTINUOUS
 62
    7
 10
244.00114166251549
 20
166.20325252764678
 40
0.0608883012790937
  0
CIRCLE
  8
_1-1_
  6
CONTINUOUS
 62
    7
 10
244.2860438742976
 20
166.59666947364551
 40
0.0608883012790937
  0
CIRCLE
  8
_1-1_
  6
CONTINUOUS
 62
    7
 10
243.30751835170469
 20
166.90035236796561
 40
0.0608883012790937
  0
CIRCLE
  8
_1-1_
  6
CONTINUOUS
 62
    7
 10
242.63779772776044
 20
167.67147383122577
 40
0.0608883012790937
  0
CIRCLE
  8
_1-1_
  6
CONTINUOUS
 62
    7
 10
243.49633968035755
 20
166.78266998832035
 40
0.0608883012790937
  0
CIRCLE
  8
_1-1_
  6
CONTINUOUS
 62
    7
 10
243.5975673117976
 20
167.18758051408048
 40
0.0608883012790937
  0
CIRCLE
  8
_1-1_
  6
CONTINUOUS
 62
    7
 10
243.15497170105013
 20
167.38320643785582
 40
0.0608883012790937
  0
CIRCLE
  8
_1-1_
  6
CONTINUOUS
 62
    7
 10
243.42106848631195
 20
166.79937217634821
 40
0.0608883012790937
  0
CIRCLE
  8
_1-1_
  6
CONTINUOUS
 62
    7
 10
243.47743527790823
 20
166.50719523378066
 40
0.0608883012790937
  0
CIRCLE
  8
_1-1_
  6
CONTINUOUS
 62
    7
 10
242.49890975531534
 20
166.81087812810077
 40
0.0608883012790937
  0
CIRCLE
  8
_1-1_
  6
CONTINUOUS
 62
    7
 10
242.77556774053781
 20
167.4142758645564
 40
0.0608883012790937
  0
CIRCLE
  8
_1-1_
  6
CONTINUOUS
 62
    7
 10
243.19495349592211
 20
167.10419665082117
 40
0.0608883012790937
  0
CIRCLE
  8
_1-1_
  6
CONTINUOUS
 62
    7
 10
242.64519169799138
 20
167.06732811724854
 40
0.0608883012790937
  0
CIRCLE
  8
_1-1_
  6
CONTINUOUS
 62
    7
 10
242.93009390977346
 20
167.46074506324729
 40
0.0608883012790937
  0
CIRCLE
  8
_1-1_
  6
CONTINUOUS
 62
    7
 10
242.06422773842633
 20
168.75678536624559
 40
0.0608883012790937
  0
CIRCLE
  8
_1-1_
  6
CONTINUOUS
 62
    7
 10
242.86410170907666
 20
167.95692376758637
 40
0.0608883012790937
  0
CIRCLE
  8
_1-1_
  6
CONTINUOUS
 62
    7
 10
243.10634529543645
 20
167.93728941766028
 40
0.0608883012790937
  0
CIRCLE
  8
_1-1_
  6
CONTINUOUS
 62
    7
 10
242.87780987525065
 20
167.25169552909398
 40
0.0608883012790937
  0
CIRCLE
  8
_1-1_
  6
CONTINUOUS
 62
    7
 10
243.16271208703276
 20
167.6451124750927
 40
0.0608883012790937
  0
CIRCLE
  8
_1-1_
  6
CONTINUOUS
 62
    7
 10
242.18418656443984
 20
167.94879536941281
 40
0.0608883012790937
  0
CIRCLE
  8
_1-1_
  6
CONTINUOUS
 62
    7
 10
241.5144659404956
 20
168.71991683267296
 40
0.0608883012790937
  0
CIRCLE
  8
_1-1_
  6
CONTINUOUS
 62
    7
 10
242.3730078930927
 20
167.83111298976755
 40
0.0608883012790937
  0
CIRCLE
  8
_1-1_
  6
CONTINUOUS
 62
    7
 10
242.47423552453276
 20
168.23602351552768
 40
0.0608883012790937
  0
CIRCLE
  8
_1-1_
  6
CONTINUOUS
 62
    7
 10
242.03163991378528
 20
168.43164943930302
 40
0.0608883012790937
  0
CIRCLE
  8
_1-1_
  6
CONTINUOUS
 62
    7
 10
242.29773669904711
 20
167.84781517779541
 40
0.0608883012790937
  0
CIRCLE
  8
_1-1_
  6
CONTINUOUS
 62
    7
 10
242.35410349064338
 20
167.55563823522786
 40
0.0608883012790937
  0
CIRCLE
  8
_1-1_
  6
CONTINUOUS
 62
    7
 10
241.37557796805049
 20
167.85932112954796
 40
0.0608883012790937
  0
CIRCLE
  8
_1-1_
  6
CONTINUOUS
 62
    7
 10
240.00468266528455
 20
168.51264472321535
 40
0.0608883012790937
  0
CIRCLE
  8
_1-1_
  6
CONTINUOUS
 62
    7
 10
240.42406842066885
 20
168.20256550948011
 40
0.0608883012790937
  0
CIRCLE
  8
_1-1_
  6
CONTINUOUS
 62
    7
 10
239.87430662273812
 20
168.16569697590748
 40
0.0608883012790937
  0
CIRCLE
  8
_1-1_
  6
CONTINUOUS
 62
    7
 10
240.1592088345202
 20
168.55911392190623
 40
0.0608883012790937
  0
CIRCLE
  8
_1-1_
  6
CONTINUOUS
 62
    7
 10
239.29334266317306
 20
169.85515422490454
 40
0.0608883012790937
  0
CIRCLE
  8
_1-1_
  6
CONTINUOUS
 62
    7
 10
240.0932166338234
 20
169.05529262624532
 40
0.0608883012790937
  0
CIRCLE
  8
_1-1_
  6
CONTINUOUS
 62
    7
 10
240.33546022018319
 20
169.03565827631923
 40
0.0608883012790937
  0
CIRCLE
  8
_1-1_
  6
CONTINUOUS
 62
    7
 10
240.10692479999739
 20
168.35006438775292
 40
0.0608883012790937
  0
CIRCLE
  8
_1-1_
  6
CONTINUOUS
 62
    7
 10
240.3918270117795
 20
168.74348133375165
 40
0.0608883012790937
  0
CIRCLE
  8
_1-1_
  6
CONTINUOUS
 62
    7
 10
239.41330148918658
 20
169.04716422807175
 40
0.0608883012790937
  0
CIRCLE
  8
_1-1_
  6
CONTINUOUS
 62
    7
 10
238.74358086524234
 20
169.81828569133191
 40
0.0608883012790937
  0
CIRCLE
  8
_1-1_
  6
CONTINUOUS
 62
    7
 10
239.60212281783944
 20
168.92948184842649
 40
0.0608883012790937
  0
CIRCLE
  8
_1-1_
  6
CONTINUOUS
 62
    7
 10
239.7033504492795
 20
169.33439237418662
 40
0.0608883012790937
  0
CIRCLE
  8
_1-1_
  6
CONTINUOUS
 62
    7
 10
239.26075483853202
 20
169.53001829796196
 40
0.0608883012790937
  0
CIRCLE
  8
_1-1_
  6
CONTINUOUS
 62
    7
 10
239.52685162379385
 20
168.94618403645435
 40
0.0608883012790937
  0
CIRCLE
  8
_1-1_
  6
CONTINUOUS
 62
    7
 10
239.58321841539012
 20
168.6540070938868
 40
0.0608883012790937
  0
CIRCLE
  8
_1-1_
  6
CONTINUOUS
 62
    7
 10
238.60469289279723
 20
168.95768998820691
 40
0.0608883012790937
  0
LINE
  8
_1-3_
  6
CONTINUOUS
 62
    7
 10
184.43195528357222
 20
69.302396759904852
 11
169.98386980795988
 21
69.302396759904852
  0
LINE
  8
_1-3_
  6
CONTINUOUS
 62
    7
 10
184.43195528357222
 20
62.902971975012534
 11
172.31307034638894
 21
62.902971975012534
  0
LINE
  8
_1-3_
  6
CONTINUOUS
 62
    7
 10
184.43195528357222
 20
56.960655146465243
 11
174.4758923480781
 21
56.960655146465243
  0
LINE
  8
_1-3_
  6
CONTINUOUS
 62
    7
 10
184.43195528357222
 20
50.789790525740997
 11
176.72190361813728
 21
50.789790525740997
  0
LINE
  8
_1-3_
  6
CONTINUOUS
 62
    7
 10
178.82279143222087
 20
45.017662807202143
 11
184.43195528357222
 21
45.017662807202143
  0
TEXT
  8
_1-3_
 62
    7
 10
187.84840846465858
 20
43.951407495493953
 40
2.5
 41
1
 50
0
  1
垂木
  0
TEXT
  8
_1-3_
 62
    7
 10
202.28157125696748
 20
43.951407495493953
 40
2.5
 41
1
 50
0
  1
60ｘ60
  0
TEXT
  8
_1-3_
 62
    7
 10
187.84840640266003
 20
49.951402546697508
 40
2.5
 41
1
 50
0
  1
野地板
  0
TEXT
  8
_1-3_
 62
    7
 10
202.28157125696748
 20
49.951402546697508
 40
2.5
 41
1
 50
0
  1
ｔ＝12
  0
TEXT
  8
_1-3_
 62
    7
 10
187.84840434066155
 20
55.951409969892183
 40
2.5
 41
1
 50
0
  1
下葺き材
  0
TEXT
  8
_1-3_
 62
    7
 10
187.84840640266003
 20
61.951405021095738
 40
2.5
 41
1
 50
0
  1
流し桟
  0
TEXT
  8
_1-3_
 62
    7
 10
187.84840846465858
 20
67.951400072299279
 40
2.5
 41
1
 50
0
  1
瓦桟
  0
TEXT
  8
_1-1_
 62
    7
 10
202.23586499772975
 20
56.274615866218184
 40
2.5
 41
1
 50
0
  1
ゴムアス系ルーフィング
  0
TEXT
  8
_1-1_
 62
    7
 10
201.30034896783363
 20
68.134938162230668
 40
2.5
 41
1
 50
0
  1
１５×３０　（樹脂桟木）
  0
TEXT
  8
_1-1_
 62
    7
 10
232.16467854315471
 20
68.254548345394369
 40
2.5
 41
1
 50
0
  1
※　地域により瓦桟木の大きさは、異なります
  0
LINE
  8
_1-1_
  6
CONTINUOUS
 62
    7
 10
178.82279143222087
 20
45.017662807202143
 11
154.73707540720622
 21
111.19260963029288
  0
ENDSEC
  0
EOF
