  0
SECTION
  2
HEADER
  9
$ACADVER
  1
AC1009
  9
$INSBASE
 10
0
 20
0
 30
0
  9
$EXTMIN
 10
0
 20
0
  9
$EXTMAX
 10
420
 20
297
  9
$LIMMIN
 10
0
 20
0
  9
$LIMMAX
 10
420
 20
297
  9
$LTSCALE
 40
1
  0
ENDSEC
  0
SECTION
  2
TABLES
  0
TABLE
  2
LTYPE
 70
     9
  0
LTYPE
  2
CONTINUOUS
 70
    64
  3
実線
 72
    65
 73
     0
 40
0.0
  0
LTYPE
  2
DASHED1
 70
    64
  3
--  --  --  --  --  --  --  --  
 72
    65
 73
     2
 40
2.5
 49
1.25
 49
-1.25
  0
LTYPE
  2
DASHED2
 70
    64
  3
----    ----    ----    ----    
 72
    65
 73
     2
 40
5.0
 49
2.5
 49
-2.5
  0
LTYPE
  2
DASHED3
 70
    64
  3
------  ------  ------  ------  
 72
    65
 73
     2
 40
5.0
 49
3.75
 49
-1.25
  0
LTYPE
  2
CENTER1
 70
    64
  3
----- - ----- - ----- - ----- - 
 72
    65
 73
     4
 40
10.0
 49
6.25
 49
-1.25
 49
1.25
 49
-1.25
  0
LTYPE
  2
CENTER2
 70
    64
  3
----------  --  ----------  --  
 72
    65
 73
     4
 40
20.0
 49
12.5
 49
-2.5
 49
2.5
 49
-2.5
  0
LTYPE
  2
PHANTOM1
 70
    64
  3
--- - - --- - - --- - - --- - - 
 72
    65
 73
     6
 40
10.0
 49
3.25
 49
-1.25
 49
1.25
 49
-1.25
 49
1.25
 49
-1.25
  0
LTYPE
  2
PHANTOM2
 70
    64
  3
--------  -  -  --------  -  -  
 72
    65
 73
     6
 40
20.0
 49
10.0
 49
-2.5
 49
1.25
 49
-2.5
 49
1.25
 49
-2.5
  0
LTYPE
  2
DOT
 70
    64
  3
-   -   -   -   -   -   -   -   
 72
    65
 73
     2
 40
2.5
 49
0.625
 49
-1.875
  0
LTYPE
  2
DUMMY
 70
    64
  3
ダミー
 72
    65
 73
     0
 40
0.0
  0
LTYPE
  2
RAND1
 70
    64
  3
ランダム線1
 72
    65
 73
     4
 40
10.0
 49
1.0
 49
-2.0
 49
3.0
 49
-4.0
  0
LTYPE
  2
RAND2
 70
    64
  3
ランダム線2
 72
    65
 73
     4
 40
14.0
 49
2.0
 49
-3.0
 49
4.0
 49
-5.0
  0
LTYPE
  2
RAND3
 70
    64
  3
ランダム線3
 72
    65
 73
     4
 40
18.0
 49
3.0
 49
-4.0
 49
5.0
 49
-6.0
  0
LTYPE
  2
RAND4
 70
    64
  3
ランダム線4
 72
    65
 73
     4
 40
22.0
 49
4.0
 49
-5.0
 49
6.0
 49
-7.0
  0
LTYPE
  2
RAND5
 70
    64
  3
ランダム線5
 72
    65
 73
     4
 40
26.0
 49
5.0
 49
-6.0
 49
7.0
 49
-8.0
  0
LTYPE
  2
LONG1
 70
    64
  3
----------  --  ----------  --  
 72
    65
 73
     4
 40
40.0
 49
32.5
 49
-2.5
 49
2.5
 49
-2.5
  0
LTYPE
  2
LONG2
 70
    64
  3
--------  -  -  --------  -  -  
 72
    65
 73
     6
 40
40.0
 49
30.0
 49
-2.5
 49
1.25
 49
-2.5
 49
1.25
 49
-2.5
  0
LTYPE
  2
LONG3
 70
    64
  3
+++++++++++++++..+++++++++++++++
 72
    65
 73
     2
 40
40.0
 49
37.5
 49
-2.5
  0
LTYPE
  2
LONG4
 70
    64
  3
+++++++++++++++..+++++++++++++++
 72
    65
 73
     2
 40
80.0
 49
75.0
 49
-5.0
  0
LTYPE
  2
LONG5
 70
    64
  3
----------  --  ----------  --  
 72
    65
 73
     4
 40
60.0
 49
37.5
 49
-7.5
 49
7.5
 49
-7.5
  0
LTYPE
  2
dashed
 70
   64
  3
-------   -------------   ------
 72
   65
 73
    2
 40
7.5
 49
6
 49
-1.5
  0
LTYPE
  2
dashed_spaced
 70
   64
  3
----        --------        ----
 72
   65
 73
    2
 40
12
 49
6
 49
-6
  0
LTYPE
  2
long_dashed_dotted
 70
   64
  3
------------- --- --------------
 72
   65
 73
    4
 40
15.25
 49
12
 49
-1.5
 49
0.25
 49
-1.5
  0
LTYPE
  2
long_dashed_double-dotted
 70
   64
  3
----------- --- --- ------------
 72
   65
 73
    6
 40
17
 49
12
 49
-1.5
 49
0.25
 49
-1.5
 49
0.25
 49
-1.5
  0
LTYPE
  2
long_dashed_triplicate-dotted
 70
   64
  3
--------- --- --- --- ----------
 72
   65
 73
    8
 40
18.75
 49
12
 49
-1.5
 49
0.25
 49
-1.5
 49
0.25
 49
-1.5
 49
0.25
 49
-1.5
  0
LTYPE
  2
dotted
 70
   64
  3
   -       -       -       -    
 72
   65
 73
    2
 40
1.75
 49
0.25
 49
-1.5
  0
LTYPE
  2
chain
 70
   64
  3
-------------- -- --------------
 72
   65
 73
    4
 40
18.5
 49
12
 49
-1.5
 49
3.5
 49
-1.5
  0
LTYPE
  2
chain_double_dash
 70
   64
  3
------------ -- -- -------------
 72
   65
 73
    6
 40
23.5
 49
12
 49
-1.5
 49
3.5
 49
-1.5
 49
3.5
 49
-1.5
  0
LTYPE
  2
dashed_dotted
 70
   64
  3
-----------     -     ----------
 72
   65
 73
    4
 40
9.25
 49
6
 49
-1.5
 49
0.25
 49
-1.5
  0
LTYPE
  2
double-dashed_dotted
 70
   64
  3
------   -----------   -   -----
 72
   65
 73
    6
 40
16.75
 49
6
 49
-1.5
 49
6
 49
-1.5
 49
0.25
 49
-1.5
  0
LTYPE
  2
dashed_double-dotted
 70
   64
  3
---------    -    -    ---------
 72
   65
 73
    6
 40
11
 49
6
 49
-1.5
 49
0.25
 49
-1.5
 49
0.25
 49
-1.5
  0
LTYPE
  2
double-dashed_double-dotted
 70
   64
  3
-----   ---------   -   -   ----
 72
   65
 73
    8
 40
18.5
 49
6
 49
-1.5
 49
6
 49
-1.5
 49
0.25
 49
-1.5
 49
0.25
 49
-1.5
  0
LTYPE
  2
dashed_triplicate-dotted
 70
   64
  3
-------    -    -    -    ------
 72
   65
 73
    8
 40
12.75
 49
6
 49
-1.5
 49
0.25
 49
-1.5
 49
0.25
 49
-1.5
 49
0.25
 49
-1.5
  0
LTYPE
  2
double-dashed_triplicate-dotted
 70
   64
  3
-----  ---------  -  -  -  -----
 72
   65
 73
   10
 40
20.25
 49
6
 49
-1.5
 49
6
 49
-1.5
 49
0.25
 49
-1.5
 49
0.25
 49
-1.5
 49
0.25
 49
-1.5
  0
LTYPE
  2
undefined
 70
   64
  3
--------------------------------
 72
   65
 73
    0
 40
0
  0
ENDTAB
  0
TABLE
  2
STYLE
  5
3
100
AcDbSymbolTable
 70
     1
  0
STYLE
  5
10
100
AcDbSymbolTableRecord
100
AcDbTextStyleTableRecord
  2
STANDARD
 70
     0
 40
0.0
 41
1.0
 50
0.0
 71
     0
 42
0.2
  3
txt
  4
bigfont.shx
  0
STYLE
  5
26
100
AcDbSymbolTableRecord
100
AcDbTextStyleTableRecord
  2
TATEGAKI
 70
    68
 40
0.0
 41
1.0
 50
0.0
 71
     0
 42
1.0
  3
txt
  4
bigfont.shx
  0
ENDTAB
  0
TABLE
  2
LAYER
 70
    6
  0
LAYER
  2
_0-0_
 70
   64
 62
    7
  6
CONTINUOUS
  0
LAYER
  2
_1-0_
 70
   64
 62
    7
  6
CONTINUOUS
  0
LAYER
  2
_1-1_
 70
   64
 62
    7
  6
CONTINUOUS
  0
LAYER
  2
_1-2_
 70
   64
 62
    7
  6
CONTINUOUS
  0
LAYER
  2
_1-3_
 70
   64
 62
    7
  6
CONTINUOUS
  0
LAYER
  2
ADD_LINE
 70
   64
 62
    7
  6
CONTINUOUS
  0
ENDTAB
  0
ENDSEC
  0
SECTION
  2
BLOCKS
  0
ENDSEC
  0
SECTION
  2
ENTITIES
  0
LINE
  8
_0-0_
  6
CONTINUOUS
 62
    5
 10
6.7567526327597136
 20
280.13513513513516
 11
406.75677325274495
 21
280.13513513513516
  0
LINE
  8
_0-0_
  6
CONTINUOUS
 62
    5
 10
406.75677325274495
 20
10.13513513513513
 11
6.7567526327597136
 21
10.13513513513513
  0
LINE
  8
_0-0_
  6
CONTINUOUS
 62
    5
 10
406.75677325274495
 20
30.135133073136615
 11
6.7567402607685949
 21
30.135133073136615
  0
LINE
  8
_0-0_
  6
CONTINUOUS
 62
    5
 10
371.75678150073907
 20
10.13513513513513
 11
371.75678150073907
 21
30.135133073136615
  0
LINE
  8
_0-0_
  6
CONTINUOUS
 62
    5
 10
137.02703939901818
 20
30.135133073136615
 11
137.02703939901818
 21
10.13513513513513
  0
LINE
  8
_0-0_
  6
CONTINUOUS
 62
    5
 10
214.86486486486487
 20
30.135133073136615
 11
214.86486486486487
 21
10.13513513513513
  0
LINE
  8
_0-0_
  6
CONTINUOUS
 62
    5
 10
137.02703939901818
 20
20.135134104135886
 11
214.86486486486487
 21
20.135134104135886
  0
LINE
  8
_0-0_
  6
CONTINUOUS
 62
    5
 10
396.48648648648651
 20
25.945945945945951
 11
383.91891891891896
 21
13.378379924877265
  0
LINE
  8
_1-0_
  6
CONTINUOUS
 62
    7
 10
47.774753055057005
 20
110.45587488122889
 11
46.297438337996198
 21
113.73879510003168
  0
LINE
  8
_1-0_
  6
CONTINUOUS
 62
    7
 10
46.297438337996198
 20
113.73879510003168
 11
50.674661172402864
 21
115.70853980811867
  0
LINE
  8
_1-0_
  6
CONTINUOUS
 62
    7
 10
50.674661172402864
 20
115.70853980811867
 11
52.151975889463699
 21
112.42561958931589
  0
LINE
  8
_1-0_
  6
CONTINUOUS
 62
    7
 10
52.151975889463699
 20
112.42561958931589
 11
47.774753055057005
 21
110.45587488122889
  0
LINE
  8
_1-0_
  6
CONTINUOUS
 62
    7
 10
46.297438337996198
 20
113.73879510003168
 11
52.151975889463699
 21
112.42561958931589
  0
LINE
  8
_1-0_
  6
CONTINUOUS
 62
    7
 10
98.094573149809975
 20
137.04750267235011
 11
99.571887866870782
 21
133.76458245354729
  0
LINE
  8
_1-0_
  6
CONTINUOUS
 62
    7
 10
99.571887866870782
 20
133.76458245354729
 11
95.194652660472983
 21
131.79483774546031
  0
LINE
  8
_1-0_
  6
CONTINUOUS
 62
    7
 10
145.51448512721706
 20
158.38646553658151
 11
146.99179984427789
 21
155.10354531777872
  0
LINE
  8
_1-0_
  6
CONTINUOUS
 62
    7
 10
146.99179984427789
 20
155.10354531777872
 11
142.61456463788008
 21
153.13380060969172
  0
LINE
  8
_1-2_
  6
CONTINUOUS
 62
    3
 10
51.773219752956095
 20
113.46732887061867
 11
53.592768488703541
 21
114.0791485760663
  0
LINE
  8
ADD_LINE
  6
DOT
 62
    7
 10
50.112948031038854
 20
118.71159321552999
 11
49.940259778821797
 21
119.28651964342272
  0
LINE
  8
_1-2_
  6
CONTINUOUS
 62
    3
 10
49.940259778821797
 20
119.28651964342272
 11
50.112948031038854
 21
118.71159321552999
  0
LINE
  8
_1-2_
  6
CONTINUOUS
 62
    3
 10
50.976463524070937
 20
115.83688684411952
 11
51.775793127111484
 21
113.45967060810811
  0
LINE
  8
_1-2_
  6
CONTINUOUS
 62
    3
 10
49.940259778821797
 20
119.28651964342272
 11
51.836960251266902
 21
119.92429578626479
  0
LINE
  8
_1-2_
  6
CONTINUOUS
 62
    3
 10
53.592768488703541
 20
114.0791485760663
 11
51.836960251266902
 21
119.92429578626479
  0
LINE
  8
_1-0_
  6
CONTINUOUS
 62
    7
 10
98.094573149809975
 20
137.04749030035896
 11
99.571887866870782
 21
133.76457008155617
  0
LINE
  8
_1-0_
  6
CONTINUOUS
 62
    7
 10
99.571887866870782
 20
133.76457008155617
 11
95.194652660472983
 21
131.79482537346917
  0
LINE
  8
_1-2_
  6
CONTINUOUS
 62
    3
 10
99.184050688872475
 20
134.8029512972445
 11
100.9982052364865
 21
135.43061952333193
  0
LINE
  8
ADD_LINE
  6
DOT
 62
    7
 10
97.478101575696797
 20
140.03253008868245
 11
97.300365551097983
 21
140.60592238967484
  0
LINE
  8
_1-2_
  6
CONTINUOUS
 62
    3
 10
97.300365551097983
 20
140.60592238967484
 11
97.478101575696797
 21
140.03253008868245
  0
LINE
  8
_1-2_
  6
CONTINUOUS
 62
    3
 10
98.366657978779571
 20
137.16545723580026
 11
99.186698294974661
 21
134.79530540672511
  0
LINE
  8
_1-2_
  6
CONTINUOUS
 62
    3
 10
42.723132984058282
 20
117.06460901208827
 11
43.479519405880495
 21
117.32632611248945
  0
LINE
  8
_1-2_
  6
CONTINUOUS
 62
    3
 10
44.641818484744505
 20
118.57719627586572
 11
98.366657978779571
 21
137.16545723580026
  0
LINE
  8
_1-2_
  6
CONTINUOUS
 62
    3
 10
43.617034087309975
 20
116.88269125448691
 11
43.479519405880495
 21
117.32632611248945
  0
LINE
  8
_1-2_
  6
CONTINUOUS
 62
    3
 10
42.864482982738593
 20
116.60851555901606
 11
42.723132984058282
 21
117.06460901208827
  0
LINE
  8
_1-2_
  6
CONTINUOUS
 62
    3
 10
44.346226872624584
 20
116.91645441828548
 11
43.87348071948901
 21
116.75287195154139
  0
LINE
  8
_1-2_
  6
CONTINUOUS
 62
    3
 10
44.471864442567579
 20
117.16466130437078
 11
44.264881030933282
 21
117.83255087362754
  0
LINE
  8
_1-2_
  6
CONTINUOUS
 62
    3
 10
42.266062143686668
 20
116.19672620618667
 11
42.738833040804479
 21
116.36030867293076
  0
LINE
  8
_1-2_
  6
CONTINUOUS
 62
    3
 10
97.478101575696797
 20
140.03253008868245
 11
40.746002197265625
 21
120.40377230257602
  0
LINE
  8
_1-2_
  6
CONTINUOUS
 62
    3
 10
42.009627883498752
 20
116.32653313714106
 11
40.746002197265625
 21
120.40377230257602
  0
LINE
  8
_1-2_
  6
CONTINUOUS
 62
    3
 10
100.9982052364865
 20
135.43061952333193
 11
99.191449139569258
 21
141.26022751266893
  0
LINE
  8
_1-2_
  6
CONTINUOUS
 62
    7
 10
40.746002197265625
 20
120.40377230257602
 11
36.03759353225297
 21
134.01224497202281
  0
LINE
  8
_1-0_
  6
CONTINUOUS
 62
    7
 10
95.194652660472983
 20
131.79483774546031
 11
93.734485523120782
 21
135.03968934755068
  0
LINE
  8
_1-0_
  6
CONTINUOUS
 62
    7
 10
95.194652660472983
 20
131.79482537346917
 11
93.734460779138516
 21
135.03967697555956
  0
LINE
  8
_1-0_
  6
CONTINUOUS
 62
    7
 10
93.734485523120782
 20
135.03968934755068
 11
99.571887866870782
 21
133.76458245354729
  0
LINE
  8
_1-2_
  6
CONTINUOUS
 62
    7
 10
51.836960251266902
 20
119.92429578626479
 11
51.492895177892734
 21
120.94759554476352
  0
LINE
  8
_1-0_
  6
CONTINUOUS
 62
    7
 10
49.940259778821797
 20
119.28651964342272
 11
49.634448902027032
 21
120.30459842166385
  0
LINE
  8
_1-0_
  6
CONTINUOUS
 62
    7
 10
145.51448512721706
 20
158.38646553658151
 11
146.99179984427789
 21
155.10354531777872
  0
LINE
  8
_1-0_
  6
CONTINUOUS
 62
    7
 10
146.99179984427789
 20
155.10354531777872
 11
142.61456463788008
 21
153.13380060969172
  0
LINE
  8
_1-0_
  6
CONTINUOUS
 62
    7
 10
145.51448512721706
 20
158.38645316459039
 11
146.99179984427789
 21
155.10353294578761
  0
LINE
  8
_1-0_
  6
CONTINUOUS
 62
    7
 10
146.99179984427789
 20
155.10353294578761
 11
142.61456463788008
 21
153.1337882377006
  0
LINE
  8
_1-2_
  6
CONTINUOUS
 62
    3
 10
144.78008373363599
 20
161.96443299989443
 11
144.95277198585305
 21
161.38950657200169
  0
LINE
  8
_1-2_
  6
CONTINUOUS
 62
    3
 10
146.60396266627956
 20
156.14191416147594
 11
148.41811721389359
 21
156.76958238756336
  0
LINE
  8
ADD_LINE
  6
DOT
 62
    7
 10
144.89801355310388
 20
161.37149295291385
 11
144.72027752850508
 21
161.94488525390625
  0
LINE
  8
_1-2_
  6
CONTINUOUS
 62
    3
 10
144.72027752850508
 20
161.94488525390625
 11
144.89801355310388
 21
161.37149295291385
  0
LINE
  8
_1-2_
  6
CONTINUOUS
 62
    3
 10
145.78656995618667
 20
158.50442010003169
 11
146.60661027238177
 21
156.13426827095651
  0
LINE
  8
_1-2_
  6
CONTINUOUS
 62
    3
 10
90.143044961465378
 20
138.40357187631969
 11
90.899443755278725
 21
138.66528897672086
  0
LINE
  8
_1-2_
  6
CONTINUOUS
 62
    3
 10
92.061718090160483
 20
139.91615914009714
 11
145.78656995618667
 21
158.50442010003169
  0
LINE
  8
_1-2_
  6
CONTINUOUS
 62
    3
 10
91.036946064717071
 20
138.22165411871833
 11
90.899443755278725
 21
138.66528897672086
  0
LINE
  8
_1-2_
  6
CONTINUOUS
 62
    3
 10
90.284407332136823
 20
137.94747842324747
 11
90.143044961465378
 21
138.40357187631969
  0
LINE
  8
_1-2_
  6
CONTINUOUS
 62
    3
 10
91.766126478040547
 20
138.2554172825169
 11
91.29339269689612
 21
138.09183481577281
  0
LINE
  8
_1-2_
  6
CONTINUOUS
 62
    3
 10
91.891776419974661
 20
138.50362416860222
 11
91.684793008340378
 21
139.17151373785896
  0
LINE
  8
_1-2_
  6
CONTINUOUS
 62
    3
 10
89.68597412109375
 20
137.53568907041807
 11
90.158757390202709
 21
137.69927153716216
  0
LINE
  8
_1-2_
  6
CONTINUOUS
 62
    3
 10
144.89801355310388
 20
161.37149295291385
 11
88.165926546663854
 21
141.74273516680745
  0
LINE
  8
_1-2_
  6
CONTINUOUS
 62
    3
 10
89.429552232896967
 20
137.66549600137247
 11
88.165926546663854
 21
141.74273516680745
  0
LINE
  8
_1-2_
  6
CONTINUOUS
 62
    3
 10
148.41811721389359
 20
156.76958238756336
 11
146.61136111697635
 21
162.59919037690034
  0
LINE
  8
_1-2_
  6
CONTINUOUS
 62
    7
 10
88.165926546663854
 20
141.74273516680745
 11
83.457493137668919
 21
155.35120783625422
  0
LINE
  8
_1-0_
  6
CONTINUOUS
 62
    7
 10
142.61456463788008
 20
153.13380060969172
 11
141.15439750052789
 21
156.37865221178211
  0
LINE
  8
_1-0_
  6
CONTINUOUS
 62
    7
 10
142.61456463788008
 20
153.1337882377006
 11
141.15437275654563
 21
156.37863983979096
  0
LINE
  8
_1-0_
  6
CONTINUOUS
 62
    7
 10
141.15437275654563
 20
156.37863983979096
 11
145.48590582770271
 21
158.37343782991977
  0
LINE
  8
_1-0_
  6
CONTINUOUS
 62
    7
 10
141.15439750052789
 20
156.37865221178211
 11
146.99179984427789
 21
155.10354531777872
  0
LINE
  8
_1-0_
  6
CONTINUOUS
 62
    7
 10
192.93442184860643
 20
179.72544077280406
 11
194.41173656566724
 21
176.44250818201016
  0
LINE
  8
_1-0_
  6
CONTINUOUS
 62
    7
 10
194.41173656566724
 20
176.44250818201016
 11
190.03450135926943
 21
174.47276347392315
  0
LINE
  8
_1-0_
  6
CONTINUOUS
 62
    7
 10
192.93442184860643
 20
179.7254160288218
 11
194.41173656566724
 21
176.44250818201016
  0
LINE
  8
_1-2_
  6
CONTINUOUS
 62
    3
 10
192.20002045502534
 20
183.30339586412586
 11
192.3727087072424
 21
182.72846943623313
  0
LINE
  8
ADD_LINE
  6
DOT
 62
    7
 10
195.83805393528294
 20
178.10854525179477
 11
192.39742794552365
 21
189.21010610219597
  0
LINE
  8
_1-2_
  6
CONTINUOUS
 62
    3
 10
194.02389938766893
 20
177.48086465371622
 11
195.83805393528294
 21
178.10854525179477
  0
LINE
  8
ADD_LINE
  6
DOT
 62
    7
 10
192.31795027449326
 20
182.71045581714529
 11
192.14021424989443
 21
183.28384811813768
  0
LINE
  8
_1-2_
  6
CONTINUOUS
 62
    3
 10
192.14021424989443
 20
183.28384811813768
 11
192.31795027449326
 21
182.71045581714529
  0
LINE
  8
_1-2_
  6
CONTINUOUS
 62
    3
 10
193.20650667757602
 20
179.84337059227198
 11
194.02654699377112
 21
177.47324350717906
  0
LINE
  8
_1-2_
  6
CONTINUOUS
 62
    3
 10
137.56298168285474
 20
159.74253474055109
 11
138.31935573268581
 21
160.00425184095229
  0
LINE
  8
_1-2_
  6
CONTINUOUS
 62
    3
 10
139.48167955553211
 20
161.25512200432857
 11
193.20650667757602
 21
179.84337059227198
  0
LINE
  8
_1-2_
  6
CONTINUOUS
 62
    3
 10
138.45688278610643
 20
159.56061698294977
 11
138.31935573268581
 21
160.00425184095229
  0
LINE
  8
_1-2_
  6
CONTINUOUS
 62
    3
 10
137.70431930954393
 20
159.28644128747891
 11
137.56298168285474
 21
159.74253474055109
  0
LINE
  8
_1-2_
  6
CONTINUOUS
 62
    3
 10
139.18608794341216
 20
159.59438014674831
 11
138.71332941828547
 21
159.43079768000422
  0
LINE
  8
_1-2_
  6
CONTINUOUS
 62
    3
 10
139.31171314136404
 20
159.84258703283362
 11
139.10472972972974
 21
160.51047660209039
  0
LINE
  8
_1-2_
  6
CONTINUOUS
 62
    3
 10
137.10591084248313
 20
158.87465193464951
 11
137.57866936760979
 21
159.03823440139359
  0
LINE
  8
_1-2_
  6
CONTINUOUS
 62
    3
 10
192.31795027449326
 20
182.71045581714529
 11
135.58583852407097
 21
163.08169803103885
  0
LINE
  8
_1-2_
  6
CONTINUOUS
 62
    3
 10
192.14021424989443
 20
183.28384811813768
 11
194.03129783836573
 21
183.93815324113177
  0
LINE
  8
_1-2_
  6
CONTINUOUS
 62
    3
 10
195.83805393528294
 20
178.10854525179477
 11
194.03129783836573
 21
183.93815324113177
  0
LINE
  8
_1-2_
  6
CONTINUOUS
 62
    7
 10
135.58583852407097
 20
163.08169803103885
 11
130.87745460304055
 21
176.69017070048565
  0
LINE
  8
_1-2_
  6
CONTINUOUS
 62
    7
 10
189.51905946473818
 20
196.97961755701016
 11
130.87745460304055
 21
176.69017070048565
  0
LINE
  8
_1-2_
  6
CONTINUOUS
 62
    7
 10
194.03129783836573
 20
183.93815324113177
 11
189.51905946473818
 21
196.97961755701016
  0
LINE
  8
ADD_LINE
  6
DOT
 62
    7
 10
194.41173656566724
 20
176.44250818201016
 11
194.56658440667232
 21
194.1849827122044
  0
LINE
  8
_1-0_
  6
CONTINUOUS
 62
    7
 10
190.03450135926943
 20
174.47276347392315
 11
188.57433422191724
 21
177.71761507601352
  0
LINE
  8
_1-0_
  6
CONTINUOUS
 62
    7
 10
190.03450135926943
 20
174.47273872994089
 11
188.57430947793497
 21
177.71761507601352
  0
LINE
  8
_1-0_
  6
CONTINUOUS
 62
    7
 10
188.57433422191724
 20
177.71761507601352
 11
194.41173656566724
 21
176.44250818201016
  0
LINE
  8
_1-2_
  6
CONTINUOUS
 62
    7
 10
84.981524493243242
 20
150.9463830896326
 11
36.03759353225297
 21
134.01224497202281
  0
LINE
  8
_1-2_
  6
CONTINUOUS
 62
    7
 10
99.191449139569258
 20
141.26022751266893
 11
98.84451376425254
 21
142.26292790593328
  0
LINE
  8
_1-2_
  6
CONTINUOUS
 62
    3
 10
97.300365551097983
 20
140.60592238967484
 11
99.191473883551524
 21
141.26022751266893
  0
LINE
  8
ADD_LINE
  6
DOT
 62
    7
 10
100.9982052364865
 20
135.43061952333193
 11
99.191473883551524
 21
141.26022751266893
  0
LINE
  8
_1-2_
  6
CONTINUOUS
 62
    7
 10
97.300365551097983
 20
140.60592238967484
 11
96.986092232369089
 21
141.61994315482477
  0
LINE
  8
ADD_LINE
  6
DOT
 62
    7
 10
148.41811721389359
 20
156.76958238756336
 11
146.61138586095862
 21
162.59919037690034
  0
LINE
  8
_1-2_
  6
CONTINUOUS
 62
    3
 10
144.72027752850508
 20
161.94488525390625
 11
146.61138586095862
 21
162.59919037690034
  0
LINE
  8
_1-2_
  6
CONTINUOUS
 62
    7
 10
132.4014612146326
 20
172.28534595386404
 11
83.457493137668919
 21
155.35120783625422
  0
LINE
  8
_1-2_
  6
CONTINUOUS
 62
    7
 10
146.61136111697635
 20
162.59919037690034
 11
146.26442574165964
 21
163.60189077016472
  0
LINE
  8
_1-0_
  6
CONTINUOUS
 62
    7
 10
188.57430947793497
 20
177.71761507601352
 11
192.93434761665964
 21
179.72553974873313
  0
LINE
  8
_1-0_
  6
CONTINUOUS
 62
    7
 10
192.93434761665964
 20
179.72553974873313
 11
194.41171182168497
 21
176.44250818201016
  0
LINE
  8
_1-0_
  6
CONTINUOUS
 62
    7
 10
194.41171182168497
 20
176.44250818201016
 11
190.05669671135982
 21
174.4827600427576
  0
LINE
  8
_1-0_
  6
CONTINUOUS
 62
    7
 10
190.05669671135982
 20
174.4827600427576
 11
190.03447661528716
 21
174.47276347392315
  0
LINE
  8
_1-0_
  6
CONTINUOUS
 62
    7
 10
93.734460779138516
 20
135.03967697555956
 11
98.094548405827709
 21
137.04761402027029
  0
LINE
  8
ADD_LINE
  6
DOT
 62
    7
 10
42.009627883498752
 20
116.32653313714106
 11
42.166418127111484
 21
115.82061767578125
  0
LINE
  8
_1-3_
  6
CONTINUOUS
 62
    7
 10
121.71837059227197
 20
64.882210396431589
 11
125.77051935969173
 21
64.882210396431589
  0
LINE
  8
_1-3_
  6
CONTINUOUS
 62
    7
 10
125.77051935969173
 20
70.654338114970443
 11
119.61748277818835
 21
70.654338114970443
  0
LINE
  8
_1-3_
  6
CONTINUOUS
 62
    7
 10
125.77051935969173
 20
76.825202735694688
 11
117.37147150812923
 21
76.825202735694688
  0
LINE
  8
_1-3_
  6
CONTINUOUS
 62
    7
 10
125.77051935969173
 20
82.767519564241979
 11
115.20864950644004
 21
82.767519564241979
  0
LINE
  8
_1-3_
  6
CONTINUOUS
 62
    7
 10
74.27215576171875
 20
141.42857319599875
 11
64.12578685863599
 21
169.30545291385135
  0
LINE
  8
_1-3_
  6
CONTINUOUS
 62
    7
 10
64.12578685863599
 20
169.30545291385135
 11
62.851917163745782
 21
169.30545291385135
  0
LINE
  8
_1-0_
  6
CONTINUOUS
 62
    7
 10
26.702344739759297
 20
100.97328804634714
 11
190.0594185494088
 21
174.48397249788852
  0
LINE
  8
_1-2_
  6
CONTINUOUS
 62
    3
 10
26.702344739759297
 20
107.67476262273016
 11
50.976463524070937
 21
115.83688684411952
  0
LINE
  8
_1-2_
  6
CONTINUOUS
 62
    3
 10
50.112948031038854
 20
118.71159321552999
 11
26.702344739759297
 21
110.83982725401184
  0
LINE
  8
_1-2_
  6
CONTINUOUS
 62
    7
 10
37.67169849292651
 20
129.72050022434544
 11
26.702344739759297
 21
126.0320756242082
  0
LINE
  8
ADD_LINE
  6
DOT
 62
    7
 10
197.54670014252534
 20
181.17630417282518
 11
197.54670014252534
 21
218.48926441089529
  0
LINE
  8
_1-0_
  6
CONTINUOUS
 62
    7
 10
26.702344739759297
 20
83.427924078864024
 11
197.54670014252534
 21
160.30787287531672
  0
LINE
  8
_1-0_
  6
CONTINUOUS
 62
    7
 10
26.702344739759297
 20
96.586947054476354
 11
197.54670014252534
 21
173.46692059491133
  0
LINE
  8
_1-0_
  6
CONTINUOUS
 62
    7
 10
26.702344739759297
 20
99.218754123997044
 11
197.54670014252534
 21
176.09871529244089
  0
LINE
  8
_1-0_
  6
CONTINUOUS
 62
    7
 10
26.702344739759297
 20
100.31534555796031
 11
197.54670014252534
 21
177.19529435441302
  0
LINE
  8
_1-0_
  6
CONTINUOUS
 62
    7
 10
190.0594185494088
 20
174.48397249788852
 11
197.54670014252534
 21
177.85323684279984
  0
LINE
  8
_1-0_
  6
CONTINUOUS
 62
    7
 10
347.31865960198479
 20
110.45587488122889
 11
348.79597431904563
 21
113.73879510003168
  0
LINE
  8
_1-0_
  6
CONTINUOUS
 62
    7
 10
348.79597431904563
 20
113.73879510003168
 11
344.41873911264781
 21
115.70853980811867
  0
LINE
  8
_1-0_
  6
CONTINUOUS
 62
    7
 10
344.41873911264781
 20
115.70853980811867
 11
342.94142439558703
 21
112.42561958931589
  0
LINE
  8
_1-0_
  6
CONTINUOUS
 62
    7
 10
342.94142439558703
 20
112.42561958931589
 11
347.31865960198479
 21
110.45587488122889
  0
LINE
  8
_1-0_
  6
CONTINUOUS
 62
    7
 10
348.79597431904563
 20
113.73879510003168
 11
342.94142439558703
 21
112.42561958931589
  0
LINE
  8
_1-0_
  6
CONTINUOUS
 62
    7
 10
296.99882713524073
 20
137.04750267235011
 11
295.5215124181799
 21
133.76458245354729
  0
LINE
  8
_1-0_
  6
CONTINUOUS
 62
    7
 10
295.5215124181799
 20
133.76458245354729
 11
299.89874762457771
 21
131.79483774546031
  0
LINE
  8
_1-0_
  6
CONTINUOUS
 62
    7
 10
249.57891515783362
 20
158.38646553658151
 11
248.10160044077281
 21
155.10354531777872
  0
LINE
  8
_1-0_
  6
CONTINUOUS
 62
    7
 10
248.10160044077281
 20
155.10354531777872
 11
252.47883564717063
 21
153.13380060969172
  0
LINE
  8
_1-2_
  6
CONTINUOUS
 62
    3
 10
343.32018053209464
 20
113.46732887061867
 11
341.50063179634714
 21
114.0791485760663
  0
LINE
  8
ADD_LINE
  6
DOT
 62
    7
 10
344.98045225401182
 20
118.71159321552999
 11
345.15314050622891
 21
119.28651964342272
  0
LINE
  8
_1-2_
  6
CONTINUOUS
 62
    3
 10
345.15314050622891
 20
119.28651964342272
 11
344.98045225401182
 21
118.71159321552999
  0
LINE
  8
_1-2_
  6
CONTINUOUS
 62
    3
 10
344.11693676097974
 20
115.83688684411952
 11
343.31760715793922
 21
113.45967060810811
  0
LINE
  8
_1-2_
  6
CONTINUOUS
 62
    3
 10
345.15314050622891
 20
119.28651964342272
 11
343.2564400337838
 21
119.92429578626479
  0
LINE
  8
_1-2_
  6
CONTINUOUS
 62
    3
 10
341.50063179634714
 20
114.0791485760663
 11
343.2564400337838
 21
119.92429578626479
  0
LINE
  8
_1-0_
  6
CONTINUOUS
 62
    7
 10
296.99882713524073
 20
137.04749030035896
 11
295.5215124181799
 21
133.76457008155617
  0
LINE
  8
_1-0_
  6
CONTINUOUS
 62
    7
 10
295.5215124181799
 20
133.76457008155617
 11
299.89874762457771
 21
131.79482537346917
  0
LINE
  8
_1-2_
  6
CONTINUOUS
 62
    3
 10
295.90934959617823
 20
134.8029512972445
 11
294.09519504856422
 21
135.43061952333193
  0
LINE
  8
ADD_LINE
  6
DOT
 62
    7
 10
297.61529870935391
 20
140.03253008868245
 11
297.79303473395271
 21
140.60592238967484
  0
LINE
  8
_1-2_
  6
CONTINUOUS
 62
    3
 10
297.79303473395271
 20
140.60592238967484
 11
297.61529870935391
 21
140.03253008868245
  0
LINE
  8
_1-2_
  6
CONTINUOUS
 62
    3
 10
296.72674230627115
 20
137.16545723580026
 11
295.90670199007604
 21
134.79530540672511
  0
LINE
  8
_1-2_
  6
CONTINUOUS
 62
    3
 10
352.3702673009924
 20
117.06460901208827
 11
351.61386850717906
 21
117.32632611248945
  0
LINE
  8
_1-2_
  6
CONTINUOUS
 62
    3
 10
350.45159417229729
 20
118.57719627586572
 11
296.72674230627115
 21
137.16545723580026
  0
LINE
  8
_1-2_
  6
CONTINUOUS
 62
    3
 10
351.47636619774073
 20
116.88269125448691
 11
351.61386850717906
 21
117.32632611248945
  0
LINE
  8
_1-2_
  6
CONTINUOUS
 62
    3
 10
352.22890493032099
 20
116.60851555901606
 11
352.3702673009924
 21
117.06460901208827
  0
LINE
  8
_1-2_
  6
CONTINUOUS
 62
    3
 10
350.74718578441724
 20
116.91645441828548
 11
351.21991956556167
 21
116.75287195154139
  0
LINE
  8
_1-2_
  6
CONTINUOUS
 62
    3
 10
350.62153584248313
 20
117.16466130437078
 11
350.8285192541174
 21
117.83255087362754
  0
LINE
  8
_1-2_
  6
CONTINUOUS
 62
    3
 10
352.82733814136407
 20
116.19672620618667
 11
352.35455487225511
 21
116.36030867293076
  0
LINE
  8
_1-2_
  6
CONTINUOUS
 62
    3
 10
297.61529870935391
 20
140.03253008868245
 11
354.34738571579396
 21
120.40377230257602
  0
LINE
  8
_1-2_
  6
CONTINUOUS
 62
    3
 10
353.08376002956084
 20
116.32653313714106
 11
354.34738571579396
 21
120.40377230257602
  0
LINE
  8
_1-2_
  6
CONTINUOUS
 62
    3
 10
294.09519504856422
 20
135.43061952333193
 11
295.90195114548146
 21
141.26022751266893
  0
LINE
  8
_1-2_
  6
CONTINUOUS
 62
    7
 10
354.34738571579396
 20
120.40377230257602
 11
359.05581912478885
 21
134.01224497202281
  0
LINE
  8
_1-0_
  6
CONTINUOUS
 62
    7
 10
299.89874762457771
 20
131.79483774546031
 11
301.3589147619299
 21
135.03968934755068
  0
LINE
  8
_1-0_
  6
CONTINUOUS
 62
    7
 10
299.89874762457771
 20
131.79482537346917
 11
301.35893950591219
 21
135.03967697555956
  0
LINE
  8
_1-0_
  6
CONTINUOUS
 62
    7
 10
301.3589147619299
 20
135.03968934755068
 11
295.5215124181799
 21
133.76458245354729
  0
LINE
  8
_1-2_
  6
CONTINUOUS
 62
    7
 10
343.2564400337838
 20
119.92429578626479
 11
343.60050510715797
 21
120.94759554476352
  0
LINE
  8
_1-0_
  6
CONTINUOUS
 62
    7
 10
345.15314050622891
 20
119.28651964342272
 11
345.45895138302365
 21
120.30459842166385
  0
LINE
  8
_1-0_
  6
CONTINUOUS
 62
    7
 10
249.57891515783362
 20
158.38646553658151
 11
248.10160044077281
 21
155.10354531777872
  0
LINE
  8
_1-0_
  6
CONTINUOUS
 62
    7
 10
248.10160044077281
 20
155.10354531777872
 11
252.47883564717063
 21
153.13380060969172
  0
LINE
  8
_1-0_
  6
CONTINUOUS
 62
    7
 10
249.57891515783362
 20
158.38645316459039
 11
248.10160044077281
 21
155.10353294578761
  0
LINE
  8
_1-0_
  6
CONTINUOUS
 62
    7
 10
248.10160044077281
 20
155.10353294578761
 11
252.47883564717063
 21
153.1337882377006
  0
LINE
  8
_1-2_
  6
CONTINUOUS
 62
    3
 10
250.31331655141472
 20
161.96443299989443
 11
250.14062829919766
 21
161.38950657200169
  0
LINE
  8
_1-2_
  6
CONTINUOUS
 62
    3
 10
248.48943761877112
 20
156.14191416147594
 11
246.67528307115711
 21
156.76958238756336
  0
LINE
  8
ADD_LINE
  6
DOT
 62
    7
 10
250.1953867319468
 20
161.37149295291385
 11
250.37312275654563
 21
161.94488525390625
  0
LINE
  8
_1-2_
  6
CONTINUOUS
 62
    3
 10
250.37312275654563
 20
161.94488525390625
 11
250.1953867319468
 21
161.37149295291385
  0
LINE
  8
_1-2_
  6
CONTINUOUS
 62
    3
 10
249.30683032886404
 20
158.50442010003169
 11
248.48679001266893
 21
156.13426827095651
  0
LINE
  8
_1-2_
  6
CONTINUOUS
 62
    3
 10
304.95035532358531
 20
138.40357187631969
 11
304.19395652977198
 21
138.66528897672086
  0
LINE
  8
_1-2_
  6
CONTINUOUS
 62
    3
 10
303.03168219489021
 20
139.91615914009714
 11
249.30683032886404
 21
158.50442010003169
  0
LINE
  8
_1-2_
  6
CONTINUOUS
 62
    3
 10
304.05645422033365
 20
138.22165411871833
 11
304.19395652977198
 21
138.66528897672086
  0
LINE
  8
_1-2_
  6
CONTINUOUS
 62
    3
 10
304.80899295291385
 20
137.94747842324747
 11
304.95035532358531
 21
138.40357187631969
  0
LINE
  8
_1-2_
  6
CONTINUOUS
 62
    3
 10
303.32727380701016
 20
138.2554172825169
 11
303.80000758815459
 21
138.09183481577281
  0
LINE
  8
_1-2_
  6
CONTINUOUS
 62
    3
 10
303.20162386507604
 20
138.50362416860222
 11
303.40860727671031
 21
139.17151373785896
  0
LINE
  8
_1-2_
  6
CONTINUOUS
 62
    3
 10
305.40742616395693
 20
137.53568907041807
 11
304.93464289484797
 21
137.69927153716216
  0
LINE
  8
_1-2_
  6
CONTINUOUS
 62
    3
 10
250.1953867319468
 20
161.37149295291385
 11
306.92747373838682
 21
141.74273516680745
  0
LINE
  8
_1-2_
  6
CONTINUOUS
 62
    3
 10
305.66384805215375
 20
137.66549600137247
 11
306.92747373838682
 21
141.74273516680745
  0
LINE
  8
_1-2_
  6
CONTINUOUS
 62
    3
 10
246.67528307115711
 20
156.76958238756336
 11
248.48203916807435
 21
162.59919037690034
  0
LINE
  8
_1-2_
  6
CONTINUOUS
 62
    7
 10
306.92747373838682
 20
141.74273516680745
 11
311.63590714738177
 21
155.35120783625422
  0
LINE
  8
_1-0_
  6
CONTINUOUS
 62
    7
 10
252.47883564717063
 20
153.13380060969172
 11
253.93900278452281
 21
156.37865221178211
  0
LINE
  8
_1-0_
  6
CONTINUOUS
 62
    7
 10
252.47883564717063
 20
153.1337882377006
 11
253.93902752850508
 21
156.37863983979096
  0
LINE
  8
_1-0_
  6
CONTINUOUS
 62
    7
 10
253.93902752850508
 20
156.37863983979096
 11
249.607494457348
 21
158.37343782991977
  0
LINE
  8
_1-0_
  6
CONTINUOUS
 62
    7
 10
253.93900278452281
 20
156.37865221178211
 11
248.10160044077281
 21
155.10354531777872
  0
LINE
  8
_1-0_
  6
CONTINUOUS
 62
    7
 10
202.15897843644427
 20
179.72544077280406
 11
200.68166371938347
 21
176.44250818201016
  0
LINE
  8
_1-0_
  6
CONTINUOUS
 62
    7
 10
200.68166371938347
 20
176.44250818201016
 11
205.05889892578125
 21
174.47276347392315
  0
LINE
  8
_1-0_
  6
CONTINUOUS
 62
    7
 10
202.15897843644427
 20
179.7254160288218
 11
200.68166371938347
 21
176.44250818201016
  0
LINE
  8
_1-2_
  6
CONTINUOUS
 62
    3
 10
202.89337983002534
 20
183.30339586412586
 11
202.72069157780828
 21
182.72846943623313
  0
LINE
  8
ADD_LINE
  6
DOT
 62
    7
 10
199.25534634976773
 20
178.10854525179477
 11
202.69597233952703
 21
189.21010610219597
  0
LINE
  8
_1-2_
  6
CONTINUOUS
 62
    3
 10
201.06950089738177
 20
177.48086465371622
 11
199.25534634976773
 21
178.10854525179477
  0
LINE
  8
ADD_LINE
  6
DOT
 62
    7
 10
202.77545001055745
 20
182.71045581714529
 11
202.95318603515625
 21
183.28384811813768
  0
LINE
  8
_1-2_
  6
CONTINUOUS
 62
    3
 10
202.95318603515625
 20
183.28384811813768
 11
202.77545001055745
 21
182.71045581714529
  0
LINE
  8
_1-2_
  6
CONTINUOUS
 62
    3
 10
201.88689360747466
 20
179.84337059227198
 11
201.06685329127959
 21
177.47324350717906
  0
LINE
  8
_1-2_
  6
CONTINUOUS
 62
    3
 10
257.53041860219594
 20
159.74253474055109
 11
256.7740445523649
 21
160.00425184095229
  0
LINE
  8
_1-2_
  6
CONTINUOUS
 62
    3
 10
255.61172072951859
 20
161.25512200432857
 11
201.88689360747466
 21
179.84337059227198
  0
LINE
  8
_1-2_
  6
CONTINUOUS
 62
    3
 10
256.63651749894427
 20
159.56061698294977
 11
256.7740445523649
 21
160.00425184095229
  0
LINE
  8
_1-2_
  6
CONTINUOUS
 62
    3
 10
257.38908097550677
 20
159.28644128747891
 11
257.53041860219594
 21
159.74253474055109
  0
LINE
  8
_1-2_
  6
CONTINUOUS
 62
    3
 10
255.90731234163852
 20
159.59438014674831
 11
256.38007086676521
 21
159.43079768000422
  0
LINE
  8
_1-2_
  6
CONTINUOUS
 62
    3
 10
255.78168714368667
 20
159.84258703283362
 11
255.98867055532097
 21
160.51047660209039
  0
LINE
  8
_1-2_
  6
CONTINUOUS
 62
    3
 10
257.98748944256761
 20
158.87465193464951
 11
257.51473091744089
 21
159.03823440139359
  0
LINE
  8
_1-2_
  6
CONTINUOUS
 62
    3
 10
202.77545001055745
 20
182.71045581714529
 11
259.50756176097974
 21
163.08169803103885
  0
LINE
  8
_1-2_
  6
CONTINUOUS
 62
    3
 10
258.24393607474661
 20
159.00445886560388
 11
259.50756176097974
 21
163.08169803103885
  0
LINE
  8
_1-2_
  6
CONTINUOUS
 62
    3
 10
202.95318603515625
 20
183.28384811813768
 11
201.06210244668497
 21
183.93815324113177
  0
LINE
  8
_1-2_
  6
CONTINUOUS
 62
    3
 10
199.25534634976773
 20
178.10854525179477
 11
201.06210244668497
 21
183.93815324113177
  0
LINE
  8
_1-2_
  6
CONTINUOUS
 62
    7
 10
259.50756176097974
 20
163.08169803103885
 11
264.21594568201016
 21
176.69017070048565
  0
LINE
  8
_1-2_
  6
CONTINUOUS
 62
    7
 10
205.5743408203125
 20
196.97961755701016
 11
264.21594568201016
 21
176.69017070048565
  0
LINE
  8
_1-2_
  6
CONTINUOUS
 62
    7
 10
201.06210244668497
 20
183.93815324113177
 11
205.5743408203125
 21
196.97961755701016
  0
LINE
  8
ADD_LINE
  6
DOT
 62
    7
 10
200.68166371938347
 20
176.44250818201016
 11
200.52681587837839
 21
194.1849827122044
  0
LINE
  8
_1-0_
  6
CONTINUOUS
 62
    7
 10
205.05889892578125
 20
174.47276347392315
 11
206.51906606313347
 21
177.71761507601352
  0
LINE
  8
_1-0_
  6
CONTINUOUS
 62
    7
 10
205.05889892578125
 20
174.47273872994089
 11
206.51909080711573
 21
177.71761507601352
  0
LINE
  8
_1-0_
  6
CONTINUOUS
 62
    7
 10
206.51906606313347
 20
177.71761507601352
 11
200.68166371938347
 21
176.44250818201016
  0
LINE
  8
_1-2_
  6
CONTINUOUS
 62
    7
 10
310.11187579180745
 20
150.9463830896326
 11
359.05581912478885
 21
134.01224497202281
  0
LINE
  8
_1-2_
  6
CONTINUOUS
 62
    7
 10
295.90195114548146
 20
141.26022751266893
 11
296.24888652079818
 21
142.26292790593328
  0
LINE
  8
_1-2_
  6
CONTINUOUS
 62
    3
 10
297.79303473395271
 20
140.60592238967484
 11
295.90192640149917
 21
141.26022751266893
  0
LINE
  8
ADD_LINE
  6
DOT
 62
    7
 10
294.09519504856422
 20
135.43061952333193
 11
295.90192640149917
 21
141.26022751266893
  0
LINE
  8
_1-2_
  6
CONTINUOUS
 62
    7
 10
297.79303473395271
 20
140.60592238967484
 11
298.10730805268162
 21
141.61994315482477
  0
LINE
  8
ADD_LINE
  6
DOT
 62
    7
 10
246.67528307115711
 20
156.76958238756336
 11
248.48201442409209
 21
162.59919037690034
  0
LINE
  8
_1-2_
  6
CONTINUOUS
 62
    3
 10
250.37312275654563
 20
161.94488525390625
 11
248.48201442409209
 21
162.59919037690034
  0
LINE
  8
_1-2_
  6
CONTINUOUS
 62
    7
 10
262.69193907041807
 20
172.28534595386404
 11
311.63590714738177
 21
155.35120783625422
  0
LINE
  8
_1-2_
  6
CONTINUOUS
 62
    7
 10
248.48203916807435
 20
162.59919037690034
 11
248.82897454339107
 21
163.60189077016472
  0
LINE
  8
_1-0_
  6
CONTINUOUS
 62
    7
 10
206.51909080711573
 20
177.71761507601352
 11
202.15905266839107
 21
179.72553974873313
  0
LINE
  8
_1-0_
  6
CONTINUOUS
 62
    7
 10
202.15905266839107
 20
179.72553974873313
 11
200.68168846336573
 21
176.44250818201016
  0
LINE
  8
_1-0_
  6
CONTINUOUS
 62
    7
 10
200.68168846336573
 20
176.44250818201016
 11
205.03670357369089
 21
174.4827600427576
  0
LINE
  8
_1-0_
  6
CONTINUOUS
 62
    7
 10
205.03670357369089
 20
174.4827600427576
 11
205.05892366976352
 21
174.47276347392315
  0
LINE
  8
_1-0_
  6
CONTINUOUS
 62
    7
 10
301.35893950591219
 20
135.03967697555956
 11
296.99885187922297
 21
137.04761402027029
  0
LINE
  8
_1-3_
  6
CONTINUOUS
 62
    7
 10
320.82124452333193
 20
141.42857319599875
 11
330.96761342641469
 21
169.30545291385135
  0
LINE
  8
_1-3_
  6
CONTINUOUS
 62
    7
 10
330.96761342641469
 20
169.30545291385135
 11
332.2414831213049
 21
169.30545291385135
  0
LINE
  8
_1-0_
  6
CONTINUOUS
 62
    7
 10
368.39105554529141
 20
100.97328804634714
 11
205.0339817356419
 21
174.48397249788852
  0
LINE
  8
_1-2_
  6
CONTINUOUS
 62
    3
 10
368.39105554529141
 20
107.67476262273016
 11
344.11693676097974
 21
115.83688684411952
  0
LINE
  8
_1-2_
  6
CONTINUOUS
 62
    3
 10
344.98045225401182
 20
118.71159321552999
 11
368.39105554529141
 21
110.83982725401184
  0
LINE
  8
_1-2_
  6
CONTINUOUS
 62
    7
 10
357.42170179212417
 20
129.72050022434544
 11
368.39105554529141
 21
126.0320756242082
  0
LINE
  8
ADD_LINE
  6
DOT
 62
    7
 10
197.54670014252534
 20
181.17630417282518
 11
197.54670014252534
 21
218.48926441089529
  0
LINE
  8
_1-0_
  6
CONTINUOUS
 62
    7
 10
368.39105554529141
 20
83.427924078864024
 11
197.54670014252534
 21
160.30787287531672
  0
LINE
  8
_1-0_
  6
CONTINUOUS
 62
    7
 10
368.39105554529141
 20
96.586947054476354
 11
197.54670014252534
 21
173.46692059491133
  0
LINE
  8
_1-0_
  6
CONTINUOUS
 62
    7
 10
368.39105554529141
 20
99.218754123997044
 11
197.54670014252534
 21
176.09871529244089
  0
LINE
  8
_1-0_
  6
CONTINUOUS
 62
    7
 10
368.39105554529141
 20
100.31534555796031
 11
197.54670014252534
 21
177.19529435441302
  0
LINE
  8
_1-0_
  6
CONTINUOUS
 62
    7
 10
205.0339817356419
 20
174.48397249788852
 11
197.54670014252534
 21
177.85323684279984
  0
LINE
  8
_1-1_
  6
CONTINUOUS
 62
    7
 10
216.62574561866555
 20
193.1140879038218
 11
224.48621595228042
 21
192.1141340925887
  0
LINE
  8
_1-1_
  6
CONTINUOUS
 62
    7
 10
170.48622337547511
 20
192.11408460462417
 11
178.34670608108109
 21
193.1140879038218
  0
LINE
  8
_1-1_
  6
DASHED1
 62
    7
 10
200.21496746991133
 20
167.4379132245038
 11
200.64360747466216
 21
167.02968700512037
  0
LINE
  8
_1-1_
  6
DASHED1
 62
    7
 10
200.64360747466216
 20
167.02968700512037
 11
200.80428252349029
 21
167.55931957347974
  0
LINE
  8
_1-1_
  6
DASHED1
 62
    7
 10
197.24754539695948
 20
177.8239275958087
 11
200.21496746991133
 21
167.4379132245038
  0
LINE
  8
_1-1_
  6
DASHED1
 62
    7
 10
197.82579989046664
 20
177.98405827702703
 11
200.80428252349029
 21
167.55931957347974
  0
LINE
  8
_1-1_
  6
CONTINUOUS
 62
    7
 10
196.99291744747677
 20
177.84971082532729
 11
197.01768617372255
 21
177.76027370143581
  0
LINE
  8
_1-1_
  6
CONTINUOUS
 62
    7
 10
197.01768617372255
 20
177.76027370143581
 11
198.00786611196159
 21
178.03447414088893
  0
LINE
  8
_1-1_
  6
CONTINUOUS
 62
    7
 10
197.98309738571581
 20
178.12391126478042
 11
198.00786611196159
 21
178.03447414088893
  0
LINE
  8
_1-1_
  6
CONTINUOUS
 62
    7
 10
196.99291744747677
 20
177.84971082532729
 11
197.98309738571581
 21
178.12391126478042
  0
LINE
  8
_1-1_
  6
CONTINUOUS
 62
    2
 10
197.8316642142631
 20
177.94245127085094
 11
197.54670014252534
 21
215.11403676625847
  0
LINE
  8
_1-1_
  6
CONTINUOUS
 62
    2
 10
197.54670014252534
 20
215.11403676625847
 11
197.24754539695948
 21
177.8239275958087
  0
LINE
  8
_1-1_
  6
CONTINUOUS
 62
    2
 10
197.54670014252534
 20
215.11403676625847
 11
197.80027647276182
 21
214.98071618982266
  0
LINE
  8
_1-1_
  6
CONTINUOUS
 62
    2
 10
197.80027647276182
 20
214.98071618982266
 11
198.12584541939401
 21
215.3062727644637
  0
LINE
  8
_1-1_
  6
CONTINUOUS
 62
    2
 10
198.12584541939401
 20
215.3062727644637
 11
198.45142673801732
 21
215.46906342377534
  0
LINE
  8
_1-1_
  6
CONTINUOUS
 62
    2
 10
198.45142673801732
 20
215.46906342377534
 11
198.77699568464951
 21
215.63185408308701
  0
LINE
  8
_1-1_
  6
CONTINUOUS
 62
    2
 10
198.77699568464951
 20
215.63185408308701
 11
198.45142673801732
 21
215.63185408308701
  0
LINE
  8
_1-1_
  6
CONTINUOUS
 62
    2
 10
198.45142673801732
 20
215.63185408308701
 11
198.12584541939401
 21
215.71326178473396
  0
LINE
  8
_1-1_
  6
CONTINUOUS
 62
    2
 10
198.12584541939401
 20
215.71326178473396
 11
197.80027647276182
 21
215.63185408308701
  0
LINE
  8
_1-1_
  6
CONTINUOUS
 62
    2
 10
197.80027647276182
 20
215.63185408308701
 11
197.47469515413852
 21
215.38768046611065
  0
LINE
  8
_1-1_
  6
CONTINUOUS
 62
    2
 10
197.47469515413852
 20
215.38768046611065
 11
197.47469515413852
 21
214.98071618982266
  0
LINE
  8
_1-1_
  6
CONTINUOUS
 62
    2
 10
197.47469515413852
 20
214.98071618982266
 11
197.54670014252534
 21
215.11403676625847
  0
LINE
  8
_1-1_
  6
CONTINUOUS
 62
    2
 10
197.47469515413852
 20
215.114086254223
 11
197.06771850585937
 21
215.46906342377534
  0
LINE
  8
_1-1_
  6
CONTINUOUS
 62
    2
 10
197.06771850585937
 20
215.46906342377534
 11
196.74214955922722
 21
215.63185408308701
  0
LINE
  8
_1-1_
  6
CONTINUOUS
 62
    2
 10
196.74214955922722
 20
215.63185408308701
 11
196.41656824060391
 21
215.71326178473396
  0
LINE
  8
_1-1_
  6
CONTINUOUS
 62
    2
 10
196.41656824060391
 20
215.71326178473396
 11
196.09099929397172
 21
215.79464474239867
  0
LINE
  8
_1-1_
  6
CONTINUOUS
 62
    2
 10
196.09099929397172
 20
215.79464474239867
 11
195.76541797534841
 21
215.79464474239867
  0
LINE
  8
_1-1_
  6
CONTINUOUS
 62
    2
 10
195.76541797534841
 20
215.79464474239867
 11
196.09099929397172
 21
215.63185408308701
  0
LINE
  8
_1-1_
  6
CONTINUOUS
 62
    2
 10
196.09099929397172
 20
215.63185408308701
 11
196.49796357025971
 21
215.55047112542232
  0
LINE
  8
_1-1_
  6
CONTINUOUS
 62
    2
 10
196.49796357025971
 20
215.55047112542232
 11
196.82354488888302
 21
215.38768046611065
  0
LINE
  8
_1-1_
  6
CONTINUOUS
 62
    2
 10
196.82354488888302
 20
215.38768046611065
 11
197.23050916517104
 21
215.14348210515203
  0
LINE
  8
_1-1_
  6
CONTINUOUS
 62
    2
 10
197.23050916517104
 20
215.14348210515203
 11
197.47469515413852
 21
215.114086254223
  0
LINE
  8
_1-1_
  6
CONTINUOUS
 62
    7
 10
96.461996130041186
 20
134.27354142472552
 11
121.71837059227197
 21
64.882210396431589
  0
LINE
  8
_1-1_
  6
CONTINUOUS
 62
    7
 10
188.59021985853042
 20
211.4682336755701
 11
176.87583717139992
 21
243.65325102934969
  0
LINE
  8
_1-1_
  6
CONTINUOUS
 62
    7
 10
152.33225642023859
 20
225.61592720650339
 11
167.65030319626268
 21
183.52995176573057
  0
LINE
  8
_1-1_
  6
CONTINUOUS
 62
    7
 10
167.65030319626268
 20
183.52995176573057
 11
185.44714025548987
 21
188.05879335145693
  0
LINE
  8
_1-1_
  6
CONTINUOUS
 62
    7
 10
197.3338152911212
 20
208.81664379222974
 11
209.22274202913852
 21
241.4811995222762
  0
LINE
  8
_1-1_
  6
CONTINUOUS
 62
    7
 10
209.22274202913852
 20
241.4811995222762
 11
215.67567567567568
 21
241.4811995222762
  0
LINE
  8
_1-1_
  6
CONTINUOUS
 62
    7
 10
176.87583717139992
 20
243.65325102934969
 11
171.08108108108109
 21
243.65325102934969
  0
LINE
  8
_1-1_
  6
CONTINUOUS
 62
    7
 10
152.33225642023859
 20
225.61592720650339
 11
146.75675675675677
 21
225.61592720650339
  0
LINE
  8
_1-2_
  6
CONTINUOUS
 62
    3
 10
136.84946421030406
 20
159.00445886560388
 11
135.58583852407097
 21
163.08169803103885
  0
ARC
  8
_1-2_
  6
CONTINUOUS
 62
    3
 10
44.837988776129635
 20
118.01017555030617
 40
0.599999959404404
 50
109.0858917236328
 51
197.21983337402344
  0
ARC
  8
_1-2_
  6
CONTINUOUS
 62
    3
 10
43.808094746357682
 20
116.94187886006124
 40
0.1999999904954755
 50
197.21757507324216
 51
289.0885009765625
  0
ARC
  8
_1-2_
  6
CONTINUOUS
 62
    3
 10
42.673422323690886
 20
116.54930320945947
 40
0.1999999904954755
 50
289.08401489257812
 51
17.217575073242223
  0
ARC
  8
_1-2_
  6
CONTINUOUS
 62
    3
 10
44.28081615551099
 20
117.10544895481419
 40
0.1999999904954755
 50
289.0885009765625
 51
17.219955444335916
  0
ARC
  8
_1-2_
  6
CONTINUOUS
 62
    3
 10
42.200663798564193
 20
116.38574548669764
 40
0.1999999904954755
 50
197.216552734375
 51
289.08514404296875
  0
ARC
  8
_1-2_
  6
CONTINUOUS
 62
    3
 10
92.257888381545612
 20
139.34913841453761
 40
0.599999959404404
 50
109.0858917236328
 51
197.21983337402344
  0
ARC
  8
_1-2_
  6
CONTINUOUS
 62
    3
 10
91.22799435177366
 20
138.28084172429266
 40
0.1999999904954755
 50
197.21757507324216
 51
289.0885009765625
  0
ARC
  8
_1-2_
  6
CONTINUOUS
 62
    3
 10
90.093334301097983
 20
137.88826607369089
 40
0.1999999904954755
 50
289.08401489257812
 51
17.217575073242223
  0
ARC
  8
_1-2_
  6
CONTINUOUS
 62
    3
 10
91.700728132918073
 20
138.44441181904563
 40
0.1999999904954755
 50
289.0885009765625
 51
17.219955444335916
  0
ARC
  8
_1-2_
  6
CONTINUOUS
 62
    3
 10
89.62057577597129
 20
137.72470835092906
 40
0.1999999904954755
 50
197.216552734375
 51
289.08514404296875
  0
ARC
  8
_1-2_
  6
CONTINUOUS
 62
    3
 10
139.67784984691724
 20
160.68810127876901
 40
0.599999959404404
 50
109.0858917236328
 51
197.21983337402344
  0
ARC
  8
_1-2_
  6
CONTINUOUS
 62
    3
 10
138.64795581714529
 20
159.61980458852409
 40
0.1999999904954755
 50
197.21757507324216
 51
289.0885009765625
  0
ARC
  8
_1-2_
  6
CONTINUOUS
 62
    3
 10
137.51327102248734
 20
159.22722893792232
 40
0.1999999904954755
 50
289.08401489257812
 51
17.217575073242223
  0
ARC
  8
_1-2_
  6
CONTINUOUS
 62
    3
 10
139.12066485430745
 20
159.78337468327703
 40
0.1999999904954755
 50
289.0885009765625
 51
17.219955444335916
  0
ARC
  8
_1-2_
  6
CONTINUOUS
 62
    3
 10
137.04051249736065
 20
159.06367121516047
 40
0.1999999904954755
 50
197.216552734375
 51
289.08514404296875
  0
ARC
  8
_1-2_
  6
CONTINUOUS
 62
    3
 10
350.25542388091219
 20
118.01017555030617
 40
0.599999959404404
 50
342.78041076660162
 51
70.914352416992244
  0
ARC
  8
_1-2_
  6
CONTINUOUS
 62
    3
 10
351.28531791068411
 20
116.94187886006124
 40
0.1999999904954755
 50
250.91174316406253
 51
342.78266906738287
  0
ARC
  8
_1-2_
  6
CONTINUOUS
 62
    3
 10
352.41997796135979
 20
116.54930320945947
 40
0.1999999904954755
 50
162.78266906738281
 51
250.91622924804693
  0
ARC
  8
_1-2_
  6
CONTINUOUS
 62
    3
 10
350.81258412953974
 20
117.10544895481419
 40
0.1999999904954755
 50
162.78028869628909
 51
250.91174316406253
  0
ARC
  8
_1-2_
  6
CONTINUOUS
 62
    3
 10
352.89273648648651
 20
116.38574548669764
 40
0.1999999904954755
 50
250.91510009765628
 51
342.78369140625
  0
ARC
  8
_1-2_
  6
CONTINUOUS
 62
    3
 10
302.83551190350511
 20
139.34913841453761
 40
0.599999959404404
 50
342.78041076660162
 51
70.914352416992244
  0
ARC
  8
_1-2_
  6
CONTINUOUS
 62
    3
 10
303.86540593327703
 20
138.28084172429266
 40
0.1999999904954755
 50
250.91174316406253
 51
342.78266906738287
  0
ARC
  8
_1-2_
  6
CONTINUOUS
 62
    3
 10
305.00006598395271
 20
137.88826607369089
 40
0.1999999904954755
 50
162.78266906738281
 51
250.91622924804693
  0
ARC
  8
_1-2_
  6
CONTINUOUS
 62
    3
 10
303.3926721521326
 20
138.44441181904563
 40
0.1999999904954755
 50
162.78028869628909
 51
250.91174316406253
  0
ARC
  8
_1-2_
  6
CONTINUOUS
 62
    3
 10
305.47282450907943
 20
137.72470835092906
 40
0.1999999904954755
 50
250.91510009765628
 51
342.78369140625
  0
ARC
  8
_1-2_
  6
CONTINUOUS
 62
    3
 10
255.41555043813347
 20
160.68810127876901
 40
0.599999959404404
 50
342.78041076660162
 51
70.914352416992244
  0
ARC
  8
_1-2_
  6
CONTINUOUS
 62
    3
 10
256.44544446790542
 20
159.61980458852409
 40
0.1999999904954755
 50
250.91174316406253
 51
342.78266906738287
  0
ARC
  8
_1-2_
  6
CONTINUOUS
 62
    3
 10
257.58012926256333
 20
159.22722893792232
 40
0.1999999904954755
 50
162.78266906738281
 51
250.91622924804693
  0
ARC
  8
_1-2_
  6
CONTINUOUS
 62
    3
 10
255.97273543074326
 20
159.78337468327703
 40
0.1999999904954755
 50
162.78028869628909
 51
250.91174316406253
  0
ARC
  8
_1-2_
  6
CONTINUOUS
 62
    3
 10
258.05288778769005
 20
159.06367121516047
 40
0.1999999904954755
 50
250.91510009765628
 51
342.78369140625
  0
ARC
  8
_1-1_
  6
CONTINUOUS
 62
    7
 10
197.48622584987334
 20
187.76626999313768
 40
27.347822447080873
 50
9.1478271484375
 51
170.85218811035156
  0
ARC
  8
_1-1_
  6
CONTINUOUS
 62
    7
 10
197.48622584987334
 20
187.59459624419341
 40
19.919484112713789
 50
16.08660888671875
 51
163.91339111328125
  0
ARC
  8
_1-1_
  6
CONTINUOUS
 62
    7
 10
197.48622584987334
 20
187.69302780563768
 40
23.421057623785895
 50
12.185165405273436
 51
167.9019775390625
  0
ARC
  8
_1-1_
  6
CONTINUOUS
 62
    5
 10
259.97388685071792
 20
183.75441680083404
 40
46.417288909087311
 50
163.95065307617187
 51
186.01312255859375
  0
CIRCLE
  8
_1-1_
  6
CONTINUOUS
 62
    7
 10
192.32808293523016
 20
198.81456942171664
 40
0.1903721649904509
  0
CIRCLE
  8
_1-1_
  6
CONTINUOUS
 62
    7
 10
193.13576363228464
 20
200.83377735034841
 40
0.1903721649904509
  0
CIRCLE
  8
_1-1_
  6
CONTINUOUS
 62
    7
 10
191.38578260267104
 20
200.83377735034841
 40
0.1903721649904509
  0
CIRCLE
  8
_1-1_
  6
CONTINUOUS
 62
    7
 10
187.88584528742612
 20
199.75686975427578
 40
0.1903721649904509
  0
CIRCLE
  8
_1-1_
  6
CONTINUOUS
 62
    7
 10
187.88584528742612
 20
198.81456942171664
 40
0.1903721649904509
  0
CIRCLE
  8
_1-1_
  6
CONTINUOUS
 62
    7
 10
191.11656807564401
 20
197.87228146114865
 40
0.1903721649904509
  0
CIRCLE
  8
_1-1_
  6
CONTINUOUS
 62
    7
 10
190.30887500659841
 20
198.27611562368034
 40
0.1903721649904509
  0
CIRCLE
  8
_1-1_
  6
CONTINUOUS
 62
    7
 10
194.61650539088896
 20
196.1223128035262
 40
0.1903721649904509
  0
CIRCLE
  8
_1-1_
  6
CONTINUOUS
 62
    7
 10
193.94344432933912
 20
195.58385900548987
 40
0.1903721649904509
  0
CIRCLE
  8
_1-1_
  6
CONTINUOUS
 62
    7
 10
190.84732880463471
 20
194.23771213840794
 40
0.1903721649904509
  0
CIRCLE
  8
_1-1_
  6
CONTINUOUS
 62
    7
 10
188.69351361248945
 20
193.69925834037164
 40
0.1903721649904509
  0
CIRCLE
  8
_1-1_
  6
CONTINUOUS
 62
    7
 10
187.34739148938979
 20
191.54544314822635
 40
0.1903721649904509
  0
CIRCLE
  8
_1-1_
  6
CONTINUOUS
 62
    7
 10
185.5974104597762
 20
190.73777482316302
 40
0.1903721649904509
  0
CIRCLE
  8
_1-1_
  6
CONTINUOUS
 62
    7
 10
185.73203009528083
 20
189.25702069256758
 40
0.1903721649904509
  0
CIRCLE
  8
_1-1_
  6
CONTINUOUS
 62
    7
 10
184.92434939822635
 20
186.29552480336784
 40
0.1903721649904509
  0
CIRCLE
  8
_1-1_
  6
CONTINUOUS
 62
    7
 10
185.19357629724453
 20
185.48784410631336
 40
0.1903721649904509
  0
CIRCLE
  8
_1-1_
  6
CONTINUOUS
 62
    7
 10
186.94354495486698
 20
186.02629790434966
 40
0.1903721649904509
  0
CIRCLE
  8
_1-1_
  6
CONTINUOUS
 62
    7
 10
186.53971079233531
 20
187.77627893396328
 40
0.1903721649904509
  0
CIRCLE
  8
_1-1_
  6
CONTINUOUS
 62
    7
 10
184.25127596468539
 20
189.93009412610854
 40
0.1903721649904509
  0
CIRCLE
  8
_1-1_
  6
CONTINUOUS
 62
    7
 10
182.90514146959461
 20
191.00700172218117
 40
0.1903721649904509
  0
CIRCLE
  8
_1-1_
  6
CONTINUOUS
 62
    7
 10
182.09746077254013
 20
191.68006278373102
 40
0.1903721649904509
  0
CIRCLE
  8
_1-1_
  6
CONTINUOUS
 62
    7
 10
180.61671901393581
 20
194.91078557194891
 40
0.1903721649904509
  0
CIRCLE
  8
_1-1_
  6
CONTINUOUS
 62
    7
 10
181.0205531764675
 20
195.71846626900339
 40
0.1903721649904509
  0
CIRCLE
  8
_1-1_
  6
CONTINUOUS
 62
    7
 10
181.82823387352198
 20
196.79537386507602
 40
0.1903721649904509
  0
CIRCLE
  8
_1-1_
  6
CONTINUOUS
 62
    7
 10
182.09746077254013
 20
194.77616593644427
 40
0.1903721649904509
  0
CIRCLE
  8
_1-1_
  6
CONTINUOUS
 62
    7
 10
183.84744180215372
 20
193.56465107685813
 40
0.1903721649904509
  0
CIRCLE
  8
_1-1_
  6
CONTINUOUS
 62
    7
 10
182.77053420608109
 20
188.85318653003591
 40
0.1903721649904509
  0
CIRCLE
  8
_1-1_
  6
CONTINUOUS
 62
    7
 10
182.36668767155828
 20
187.5070520349451
 40
0.1903721649904509
  0
CIRCLE
  8
_1-1_
  6
CONTINUOUS
 62
    7
 10
182.63591457057643
 20
186.29552480336784
 40
0.1903721649904509
  0
CIRCLE
  8
_1-1_
  6
CONTINUOUS
 62
    7
 10
183.3089880041174
 20
185.08400994378169
 40
0.1903721649904509
  0
CIRCLE
  8
_1-1_
  6
CONTINUOUS
 62
    7
 10
183.57821490313557
 20
184.00710234770904
 40
0.1903721649904509
  0
CIRCLE
  8
_1-1_
  6
CONTINUOUS
 62
    7
 10
182.77053420608109
 20
183.19942165065456
 40
0.1903721649904509
  0
CIRCLE
  8
_1-1_
  6
CONTINUOUS
 62
    7
 10
186.00125699429898
 20
183.8724827122044
 40
0.1903721649904509
  0
CIRCLE
  8
_1-1_
  6
CONTINUOUS
 62
    7
 10
187.0781522183805
 20
185.21862957928633
 40
0.1903721649904509
  0
CIRCLE
  8
_1-1_
  6
CONTINUOUS
 62
    7
 10
188.69351361248945
 20
185.75707100533151
 40
0.1903721649904509
  0
CIRCLE
  8
_1-1_
  6
CONTINUOUS
 62
    7
 10
190.57810190561656
 20
186.83397860140414
 40
0.1903721649904509
  0
CIRCLE
  8
_1-1_
  6
CONTINUOUS
 62
    7
 10
190.44349464210305
 20
188.04550583298143
 40
0.1903721649904509
  0
CIRCLE
  8
_1-1_
  6
CONTINUOUS
 62
    7
 10
192.59730983424834
 20
189.12241342905406
 40
0.1903721649904509
  0
CIRCLE
  8
_1-1_
  6
CONTINUOUS
 62
    7
 10
195.02035192541175
 20
187.77627893396328
 40
0.1903721649904509
  0
CIRCLE
  8
_1-1_
  6
CONTINUOUS
 62
    7
 10
195.42418608794341
 20
186.29552480336784
 40
0.1903721649904509
  0
CIRCLE
  8
_1-1_
  6
CONTINUOUS
 62
    7
 10
195.96263988597974
 20
184.68016340925888
 40
0.1903721649904509
  0
CIRCLE
  8
_1-1_
  6
CONTINUOUS
 62
    7
 10
195.42418608794341
 20
183.46864854967274
 40
0.1903721649904509
  0
CIRCLE
  8
_1-1_
  6
CONTINUOUS
 62
    7
 10
196.09725952148437
 20
189.79547449060391
 40
0.1903721649904509
  0
CIRCLE
  8
_1-1_
  6
CONTINUOUS
 62
    7
 10
193.00114399678
 20
190.33392828864021
 40
0.1903721649904509
  0
CIRCLE
  8
_1-1_
  6
CONTINUOUS
 62
    7
 10
189.09736014701227
 20
190.33392828864021
 40
0.1903721649904509
  0
CIRCLE
  8
_1-1_
  6
CONTINUOUS
 62
    7
 10
187.21277185388516
 20
192.4877434807855
 40
0.1903721649904509
  0
CIRCLE
  8
_1-1_
  6
CONTINUOUS
 62
    7
 10
184.38589560019005
 20
196.79537386507602
 40
0.1903721649904509
  0
CIRCLE
  8
_1-1_
  6
CONTINUOUS
 62
    7
 10
184.25127596468539
 20
198.54534252269849
 40
0.1903721649904509
  0
CIRCLE
  8
_1-1_
  6
CONTINUOUS
 62
    7
 10
184.92434939822635
 20
199.21841595623945
 40
0.1903721649904509
  0
CIRCLE
  8
_1-1_
  6
CONTINUOUS
 62
    7
 10
189.63581394504857
 20
200.83377735034841
 40
0.1903721649904509
  0
CIRCLE
  8
_1-1_
  6
CONTINUOUS
 62
    7
 10
188.15505981445312
 20
201.37223114838471
 40
0.1903721649904509
  0
CIRCLE
  8
_1-1_
  6
CONTINUOUS
 62
    7
 10
187.21277185388516
 20
201.91068494642104
 40
0.1903721649904509
  0
CIRCLE
  8
_1-1_
  6
CONTINUOUS
 62
    7
 10
183.57821490313557
 20
200.4299308158256
 40
0.1903721649904509
  0
CIRCLE
  8
_1-1_
  6
CONTINUOUS
 62
    7
 10
181.5590069745038
 20
199.21841595623945
 40
0.1903721649904509
  0
CIRCLE
  8
_1-1_
  6
CONTINUOUS
 62
    7
 10
184.11666870117187
 20
198.41073525918497
 40
0.1903721649904509
  0
CIRCLE
  8
_1-1_
  6
CONTINUOUS
 62
    7
 10
187.34739148938979
 20
197.87228146114865
 40
0.1903721649904509
  0
CIRCLE
  8
_1-1_
  6
CONTINUOUS
 62
    7
 10
189.23196741052578
 20
202.04529220993456
 40
0.1903721649904509
  0
CIRCLE
  8
_1-1_
  6
CONTINUOUS
 62
    7
 10
193.5395977948163
 20
203.12219980600719
 40
0.1903721649904509
  0
CIRCLE
  8
_1-1_
  6
CONTINUOUS
 62
    7
 10
195.55880572344807
 20
203.12219980600719
 40
0.1903721649904509
  0
CIRCLE
  8
_1-1_
  6
CONTINUOUS
 62
    7
 10
203.90482722101987
 20
202.17991184543919
 40
0.1903721649904509
  0
CIRCLE
  8
_1-1_
  6
CONTINUOUS
 62
    7
 10
200.40488990577492
 20
201.10300424936656
 40
0.1903721649904509
  0
CIRCLE
  8
_1-1_
  6
CONTINUOUS
 62
    7
 10
200.40488990577492
 20
200.16070391680745
 40
0.1903721649904509
  0
CIRCLE
  8
_1-1_
  6
CONTINUOUS
 62
    7
 10
202.82791962494721
 20
199.62225011877112
 40
0.1903721649904509
  0
CIRCLE
  8
_1-1_
  6
CONTINUOUS
 62
    7
 10
202.1548585633974
 20
202.17991184543919
 40
0.1903721649904509
  0
CIRCLE
  8
_1-1_
  6
CONTINUOUS
 62
    7
 10
200.67410443280195
 20
202.71836564347552
 40
0.1903721649904509
  0
CIRCLE
  8
_1-1_
  6
CONTINUOUS
 62
    7
 10
199.73181647223396
 20
203.25681944151182
 40
0.1903721649904509
  0
CIRCLE
  8
_1-1_
  6
CONTINUOUS
 62
    7
 10
201.75101202887458
 20
203.39142670502534
 40
0.1903721649904509
  0
CIRCLE
  8
_1-1_
  6
CONTINUOUS
 62
    7
 10
203.09715889595651
 20
198.9491890572213
 40
0.1903721649904509
  0
CIRCLE
  8
_1-1_
  6
CONTINUOUS
 62
    7
 10
199.59722158071159
 20
197.87228146114865
 40
0.1903721649904509
  0
CIRCLE
  8
_1-1_
  6
CONTINUOUS
 62
    7
 10
199.59722158071159
 20
196.92998112858953
 40
0.1903721649904509
  0
CIRCLE
  8
_1-1_
  6
CONTINUOUS
 62
    7
 10
202.02025129988388
 20
196.39152733055323
 40
0.1903721649904509
  0
CIRCLE
  8
_1-1_
  6
CONTINUOUS
 62
    7
 10
201.34719023833404
 20
198.9491890572213
 40
0.1903721649904509
  0
CIRCLE
  8
_1-1_
  6
CONTINUOUS
 62
    7
 10
199.86643610773862
 20
199.4876428552576
 40
0.1903721649904509
  0
CIRCLE
  8
_1-1_
  6
CONTINUOUS
 62
    7
 10
198.92414814717063
 20
200.02609665329393
 40
0.1903721649904509
  0
CIRCLE
  8
_1-1_
  6
CONTINUOUS
 62
    7
 10
200.94334370381125
 20
200.16070391680745
 40
0.1903721649904509
  0
CIRCLE
  8
_1-1_
  6
CONTINUOUS
 62
    7
 10
204.9817348170925
 20
193.83387797587628
 40
0.1903721649904509
  0
CIRCLE
  8
_1-1_
  6
CONTINUOUS
 62
    7
 10
201.48179750184755
 20
192.75697037980365
 40
0.1903721649904509
  0
CIRCLE
  8
_1-1_
  6
CONTINUOUS
 62
    7
 10
201.48179750184755
 20
191.81467004724453
 40
0.1903721649904509
  0
CIRCLE
  8
_1-1_
  6
CONTINUOUS
 62
    7
 10
203.90482722101987
 20
191.2762162492082
 40
0.1903721649904509
  0
CIRCLE
  8
_1-1_
  6
CONTINUOUS
 62
    7
 10
203.23176615947003
 20
193.83387797587628
 40
0.1903721649904509
  0
CIRCLE
  8
_1-1_
  6
CONTINUOUS
 62
    7
 10
201.75101202887458
 20
194.37233177391261
 40
0.1903721649904509
  0
CIRCLE
  8
_1-1_
  6
CONTINUOUS
 62
    7
 10
200.80872406830659
 20
194.91078557194891
 40
0.1903721649904509
  0
CIRCLE
  8
_1-1_
  6
CONTINUOUS
 62
    7
 10
202.82791962494721
 20
195.04539283546242
 40
0.1903721649904509
  0
CIRCLE
  8
_1-1_
  6
CONTINUOUS
 62
    7
 10
199.32798230970229
 20
193.02620965081294
 40
0.1903721649904509
  0
CIRCLE
  8
_1-1_
  6
CONTINUOUS
 62
    7
 10
195.82804499445737
 20
191.94930205474029
 40
0.1903721649904509
  0
CIRCLE
  8
_1-1_
  6
CONTINUOUS
 62
    7
 10
195.82804499445737
 20
191.00700172218117
 40
0.1903721649904509
  0
CIRCLE
  8
_1-1_
  6
CONTINUOUS
 62
    7
 10
198.25107471362966
 20
190.46854792414487
 40
0.1903721649904509
  0
CIRCLE
  8
_1-1_
  6
CONTINUOUS
 62
    7
 10
197.57801365207982
 20
193.02620965081294
 40
0.1903721649904509
  0
CIRCLE
  8
_1-1_
  6
CONTINUOUS
 62
    7
 10
196.09725952148437
 20
193.56466344884925
 40
0.1903721649904509
  0
CIRCLE
  8
_1-1_
  6
CONTINUOUS
 62
    7
 10
195.15497156091641
 20
194.10311724688557
 40
0.1903721649904509
  0
CIRCLE
  8
_1-1_
  6
CONTINUOUS
 62
    7
 10
197.17416711755703
 20
194.23772451039909
 40
0.1903721649904509
  0
CIRCLE
  8
_1-1_
  6
CONTINUOUS
 62
    7
 10
202.42408546241555
 20
190.73777482316302
 40
0.1903721649904509
  0
CIRCLE
  8
_1-1_
  6
CONTINUOUS
 62
    7
 10
198.92414814717063
 20
189.66086722709039
 40
0.1903721649904509
  0
CIRCLE
  8
_1-1_
  6
CONTINUOUS
 62
    7
 10
198.92414814717063
 20
188.71856689453125
 40
0.1903721649904509
  0
CIRCLE
  8
_1-1_
  6
CONTINUOUS
 62
    7
 10
201.34717786634292
 20
188.18011309649495
 40
0.1903721649904509
  0
CIRCLE
  8
_1-1_
  6
CONTINUOUS
 62
    7
 10
200.67411680479307
 20
190.73777482316302
 40
0.1903721649904509
  0
CIRCLE
  8
_1-1_
  6
CONTINUOUS
 62
    7
 10
199.19336267419766
 20
191.27622862119932
 40
0.1903721649904509
  0
CIRCLE
  8
_1-1_
  6
CONTINUOUS
 62
    7
 10
198.25107471362966
 20
191.81468241923565
 40
0.1903721649904509
  0
CIRCLE
  8
_1-1_
  6
CONTINUOUS
 62
    7
 10
200.27027027027029
 20
191.94928968274917
 40
0.1903721649904509
  0
CIRCLE
  8
_1-1_
  6
CONTINUOUS
 62
    7
 10
203.90482722101987
 20
187.64167167044977
 40
0.1903721649904509
  0
CIRCLE
  8
_1-1_
  6
CONTINUOUS
 62
    7
 10
200.40488990577492
 20
186.56476407437711
 40
0.1903721649904509
  0
CIRCLE
  8
_1-1_
  6
CONTINUOUS
 62
    7
 10
200.40488990577492
 20
185.622463741818
 40
0.1903721649904509
  0
CIRCLE
  8
_1-1_
  6
CONTINUOUS
 62
    7
 10
202.82791962494721
 20
185.08400994378169
 40
0.1903721649904509
  0
CIRCLE
  8
_1-1_
  6
CONTINUOUS
 62
    7
 10
202.1548585633974
 20
187.64167167044977
 40
0.1903721649904509
  0
CIRCLE
  8
_1-1_
  6
CONTINUOUS
 62
    7
 10
200.67410443280195
 20
188.18012546848607
 40
0.1903721649904509
  0
CIRCLE
  8
_1-1_
  6
CONTINUOUS
 62
    7
 10
199.73181647223396
 20
188.7185792665224
 40
0.1903721649904509
  0
CIRCLE
  8
_1-1_
  6
CONTINUOUS
 62
    7
 10
201.75101202887458
 20
188.85318653003591
 40
0.1903721649904509
  0
CIRCLE
  8
_1-1_
  6
CONTINUOUS
 62
    7
 10
209.8278313714105
 20
189.66086722709039
 40
0.1903721649904509
  0
CIRCLE
  8
_1-1_
  6
CONTINUOUS
 62
    7
 10
206.32788168417443
 20
188.58395963101773
 40
0.1903721649904509
  0
CIRCLE
  8
_1-1_
  6
CONTINUOUS
 62
    7
 10
206.32788168417443
 20
187.64165929845862
 40
0.1903721649904509
  0
CIRCLE
  8
_1-1_
  6
CONTINUOUS
 62
    7
 10
208.75092377533784
 20
187.10320550042232
 40
0.1903721649904509
  0
CIRCLE
  8
_1-1_
  6
CONTINUOUS
 62
    7
 10
208.07783796980576
 20
189.66086722709039
 40
0.1903721649904509
  0
CIRCLE
  8
_1-1_
  6
CONTINUOUS
 62
    7
 10
206.59709621120146
 20
190.19932102512669
 40
0.1903721649904509
  0
CIRCLE
  8
_1-1_
  6
CONTINUOUS
 62
    7
 10
205.65480825063347
 20
190.73777482316302
 40
0.1903721649904509
  0
CIRCLE
  8
_1-1_
  6
CONTINUOUS
 62
    7
 10
207.67401617926521
 20
190.87238208667654
 40
0.1903721649904509
  0
CIRCLE
  8
_1-1_
  6
CONTINUOUS
 62
    7
 10
212.25086109058279
 20
187.37244477143159
 40
0.1903721649904509
  0
CIRCLE
  8
_1-1_
  6
CONTINUOUS
 62
    7
 10
208.75092377533784
 20
186.29553717535896
 40
0.1903721649904509
  0
CIRCLE
  8
_1-1_
  6
CONTINUOUS
 62
    7
 10
208.75092377533784
 20
185.35323684279984
 40
0.1903721649904509
  0
CIRCLE
  8
_1-1_
  6
CONTINUOUS
 62
    7
 10
211.17395349451016
 20
184.81478304476352
 40
0.1903721649904509
  0
CIRCLE
  8
_1-1_
  6
CONTINUOUS
 62
    7
 10
210.50091717694258
 20
187.37244477143159
 40
0.1903721649904509
  0
CIRCLE
  8
_1-1_
  6
CONTINUOUS
 62
    7
 10
209.02013830236487
 20
187.91089856946792
 40
0.1903721649904509
  0
CIRCLE
  8
_1-1_
  6
CONTINUOUS
 62
    7
 10
208.07786271378802
 20
188.44935236750425
 40
0.1903721649904509
  0
CIRCLE
  8
_1-1_
  6
CONTINUOUS
 62
    7
 10
210.0970458984375
 20
188.58395963101773
 40
0.1903721649904509
  0
CIRCLE
  8
_1-1_
  6
CONTINUOUS
 62
    7
 10
212.65468288112334
 20
191.81468241923565
 40
0.1903721649904509
  0
CIRCLE
  8
_1-1_
  6
CONTINUOUS
 62
    7
 10
209.15474556587839
 20
190.73777482316302
 40
0.1903721649904509
  0
CIRCLE
  8
_1-1_
  6
CONTINUOUS
 62
    7
 10
209.15474556587839
 20
189.79547449060391
 40
0.1903721649904509
  0
CIRCLE
  8
_1-1_
  6
CONTINUOUS
 62
    7
 10
211.57777528505068
 20
189.25702069256758
 40
0.1903721649904509
  0
CIRCLE
  8
_1-1_
  6
CONTINUOUS
 62
    7
 10
210.90473896748313
 20
191.81468241923565
 40
0.1903721649904509
  0
CIRCLE
  8
_1-1_
  6
CONTINUOUS
 62
    7
 10
209.42396009290542
 20
192.35313621727198
 40
0.1903721649904509
  0
CIRCLE
  8
_1-1_
  6
CONTINUOUS
 62
    7
 10
208.48168450432857
 20
192.89159001530828
 40
0.1903721649904509
  0
CIRCLE
  8
_1-1_
  6
CONTINUOUS
 62
    7
 10
210.50086768897805
 20
193.0261972788218
 40
0.1903721649904509
  0
CIRCLE
  8
_1-1_
  6
CONTINUOUS
 62
    7
 10
212.65468288112334
 20
194.91078557194891
 40
0.1903721649904509
  0
CIRCLE
  8
_1-1_
  6
CONTINUOUS
 62
    7
 10
209.15474556587839
 20
193.83387797587628
 40
0.1903721649904509
  0
CIRCLE
  8
_1-1_
  6
CONTINUOUS
 62
    7
 10
209.15474556587839
 20
192.89157764331716
 40
0.1903721649904509
  0
CIRCLE
  8
_1-1_
  6
CONTINUOUS
 62
    7
 10
211.57777528505068
 20
192.35312384528083
 40
0.1903721649904509
  0
CIRCLE
  8
_1-1_
  6
CONTINUOUS
 62
    7
 10
210.90473896748313
 20
194.91078557194891
 40
0.1903721649904509
  0
CIRCLE
  8
_1-1_
  6
CONTINUOUS
 62
    7
 10
209.42396009290542
 20
195.44923936998524
 40
0.1903721649904509
  0
CIRCLE
  8
_1-1_
  6
CONTINUOUS
 62
    7
 10
208.48168450432857
 20
195.98769316802154
 40
0.1903721649904509
  0
CIRCLE
  8
_1-1_
  6
CONTINUOUS
 62
    7
 10
210.50086768897805
 20
196.12230043153505
 40
0.1903721649904509
  0
CIRCLE
  8
_1-1_
  6
CONTINUOUS
 62
    7
 10
213.86619774070948
 20
197.19922039959883
 40
0.1903721649904509
  0
CIRCLE
  8
_1-1_
  6
CONTINUOUS
 62
    7
 10
210.36626042546453
 20
196.1223128035262
 40
0.1903721649904509
  0
CIRCLE
  8
_1-1_
  6
CONTINUOUS
 62
    7
 10
210.36626042546453
 20
195.18001247096709
 40
0.1903721649904509
  0
CIRCLE
  8
_1-1_
  6
CONTINUOUS
 62
    7
 10
212.78929014463682
 20
194.64155867293076
 40
0.1903721649904509
  0
CIRCLE
  8
_1-1_
  6
CONTINUOUS
 62
    7
 10
212.11625382706927
 20
197.19922039959883
 40
0.1903721649904509
  0
CIRCLE
  8
_1-1_
  6
CONTINUOUS
 62
    7
 10
210.63547495249156
 20
197.73767419763516
 40
0.1903721649904509
  0
CIRCLE
  8
_1-1_
  6
CONTINUOUS
 62
    7
 10
209.69319936391472
 20
198.27612799567146
 40
0.1903721649904509
  0
CIRCLE
  8
_1-1_
  6
CONTINUOUS
 62
    7
 10
211.71238254856419
 20
198.41073525918497
 40
0.1903721649904509
  0
CIRCLE
  8
_1-1_
  6
CONTINUOUS
 62
    7
 10
209.5585921004012
 20
198.41073525918497
 40
0.1903721649904509
  0
CIRCLE
  8
_1-1_
  6
CONTINUOUS
 62
    7
 10
206.05865478515625
 20
197.33382766311234
 40
0.1903721649904509
  0
CIRCLE
  8
_1-1_
  6
CONTINUOUS
 62
    7
 10
206.05865478515625
 20
196.39152733055323
 40
0.1903721649904509
  0
CIRCLE
  8
_1-1_
  6
CONTINUOUS
 62
    7
 10
208.48168450432857
 20
195.8530735325169
 40
0.1903721649904509
  0
CIRCLE
  8
_1-1_
  6
CONTINUOUS
 62
    7
 10
207.80862344277872
 20
198.41073525918497
 40
0.1903721649904509
  0
CIRCLE
  8
_1-1_
  6
CONTINUOUS
 62
    7
 10
206.32786931218328
 20
198.9491890572213
 40
0.1903721649904509
  0
CIRCLE
  8
_1-1_
  6
CONTINUOUS
 62
    7
 10
205.38558135161529
 20
199.4876428552576
 40
0.1903721649904509
  0
CIRCLE
  8
_1-1_
  6
CONTINUOUS
 62
    7
 10
207.40477690825591
 20
199.62225011877112
 40
0.1903721649904509
  0
CIRCLE
  8
_1-1_
  6
CONTINUOUS
 62
    7
 10
207.94323070629224
 20
202.98759254249367
 40
0.1903721649904509
  0
CIRCLE
  8
_1-1_
  6
CONTINUOUS
 62
    7
 10
204.44329339104732
 20
201.91068494642104
 40
0.1903721649904509
  0
CIRCLE
  8
_1-1_
  6
CONTINUOUS
 62
    7
 10
204.44329339104732
 20
200.96838461386193
 40
0.1903721649904509
  0
CIRCLE
  8
_1-1_
  6
CONTINUOUS
 62
    7
 10
206.86632311021961
 20
200.4299308158256
 40
0.1903721649904509
  0
CIRCLE
  8
_1-1_
  6
CONTINUOUS
 62
    7
 10
206.19326204866977
 20
202.98759254249367
 40
0.1903721649904509
  0
CIRCLE
  8
_1-1_
  6
CONTINUOUS
 62
    7
 10
204.71250791807432
 20
203.52604634053
 40
0.1903721649904509
  0
CIRCLE
  8
_1-1_
  6
CONTINUOUS
 62
    7
 10
203.77021995750636
 20
204.0645001385663
 40
0.1903721649904509
  0
CIRCLE
  8
_1-1_
  6
CONTINUOUS
 62
    7
 10
205.78941551414698
 20
204.19910740207982
 40
0.1903721649904509
  0
CIRCLE
  8
_1-1_
  6
CONTINUOUS
 62
    7
 10
201.21255823083828
 20
205.81446879618878
 40
0.1903721649904509
  0
CIRCLE
  8
_1-1_
  6
CONTINUOUS
 62
    7
 10
197.71262091559333
 20
204.73756120011615
 40
0.1903721649904509
  0
CIRCLE
  8
_1-1_
  6
CONTINUOUS
 62
    7
 10
197.71262091559333
 20
203.79526086755703
 40
0.1903721649904509
  0
CIRCLE
  8
_1-1_
  6
CONTINUOUS
 62
    7
 10
200.13565063476562
 20
203.2568070695207
 40
0.1903721649904509
  0
CIRCLE
  8
_1-1_
  6
CONTINUOUS
 62
    7
 10
199.46258957321581
 20
205.81446879618878
 40
0.1903721649904509
  0
CIRCLE
  8
_1-1_
  6
CONTINUOUS
 62
    7
 10
197.98183544262037
 20
206.35292259422511
 40
0.1903721649904509
  0
CIRCLE
  8
_1-1_
  6
CONTINUOUS
 62
    7
 10
197.03954748205237
 20
206.89137639226141
 40
0.1903721649904509
  0
CIRCLE
  8
_1-1_
  6
CONTINUOUS
 62
    7
 10
199.058743038693
 20
207.02598365577492
 40
0.1903721649904509
  0
CIRCLE
  8
_1-1_
  6
CONTINUOUS
 62
    7
 10
210.77013170396961
 20
201.2376238848712
 40
0.1903721649904509
  0
CIRCLE
  8
_1-1_
  6
CONTINUOUS
 62
    7
 10
207.27018201673354
 20
200.16071628879857
 40
0.1903721649904509
  0
CIRCLE
  8
_1-1_
  6
CONTINUOUS
 62
    7
 10
207.27018201673354
 20
199.21841595623945
 40
0.1903721649904509
  0
CIRCLE
  8
_1-1_
  6
CONTINUOUS
 62
    7
 10
209.69322410789698
 20
198.67996215820312
 40
0.1903721649904509
  0
CIRCLE
  8
_1-1_
  6
CONTINUOUS
 62
    7
 10
209.02013830236487
 20
201.2376238848712
 40
0.1903721649904509
  0
CIRCLE
  8
_1-1_
  6
CONTINUOUS
 62
    7
 10
207.53939654376057
 20
201.77607768290753
 40
0.1903721649904509
  0
CIRCLE
  8
_1-1_
  6
CONTINUOUS
 62
    7
 10
206.59710858319258
 20
202.31453148094386
 40
0.1903721649904509
  0
CIRCLE
  8
_1-1_
  6
CONTINUOUS
 62
    7
 10
208.61631651182432
 20
202.44913874445737
 40
0.1903721649904509
  0
CIRCLE
  8
_1-1_
  6
CONTINUOUS
 62
    7
 10
194.88573228990711
 20
205.14140773463896
 40
0.1903721649904509
  0
CIRCLE
  8
_1-1_
  6
CONTINUOUS
 62
    7
 10
191.38579497466216
 20
204.0645001385663
 40
0.1903721649904509
  0
CIRCLE
  8
_1-1_
  6
CONTINUOUS
 62
    7
 10
191.38579497466216
 20
203.12219980600719
 40
0.1903721649904509
  0
CIRCLE
  8
_1-1_
  6
CONTINUOUS
 62
    7
 10
193.80882469383448
 20
202.58374600797086
 40
0.1903721649904509
  0
CIRCLE
  8
_1-1_
  6
CONTINUOUS
 62
    7
 10
193.13576363228464
 20
205.14140773463896
 40
0.1903721649904509
  0
CIRCLE
  8
_1-1_
  6
CONTINUOUS
 62
    7
 10
191.65500950168919
 20
205.67986153267526
 40
0.1903721649904509
  0
CIRCLE
  8
_1-1_
  6
CONTINUOUS
 62
    7
 10
190.7127215411212
 20
206.21831533071159
 40
0.1903721649904509
  0
CIRCLE
  8
_1-1_
  6
CONTINUOUS
 62
    7
 10
192.73191709776182
 20
206.35292259422511
 40
0.1903721649904509
  0
CIRCLE
  8
_1-1_
  6
CONTINUOUS
 62
    7
 10
197.84722817910685
 20
200.16071628879857
 40
0.1903721649904509
  0
CIRCLE
  8
_1-1_
  6
CONTINUOUS
 62
    7
 10
194.34729086386193
 20
199.08380869272594
 40
0.1903721649904509
  0
CIRCLE
  8
_1-1_
  6
CONTINUOUS
 62
    7
 10
194.34729086386193
 20
198.14150836016682
 40
0.1903721649904509
  0
CIRCLE
  8
_1-1_
  6
CONTINUOUS
 62
    7
 10
196.77032058303422
 20
197.6030545621305
 40
0.1903721649904509
  0
CIRCLE
  8
_1-1_
  6
CONTINUOUS
 62
    7
 10
196.09725952148437
 20
200.16071628879857
 40
0.1903721649904509
  0
CIRCLE
  8
_1-1_
  6
CONTINUOUS
 62
    7
 10
194.61650539088896
 20
200.6991700868349
 40
0.1903721649904509
  0
CIRCLE
  8
_1-1_
  6
CONTINUOUS
 62
    7
 10
193.67421743032097
 20
201.2376238848712
 40
0.1903721649904509
  0
CIRCLE
  8
_1-1_
  6
CONTINUOUS
 62
    7
 10
195.69341298696159
 20
201.37223114838471
 40
0.1903721649904509
  0
CIRCLE
  8
_1-1_
  6
CONTINUOUS
 62
    7
 10
188.42429908546242
 20
201.50685078388938
 40
0.1903721649904509
  0
CIRCLE
  8
_1-1_
  6
CONTINUOUS
 62
    7
 10
184.9243617702175
 20
200.42994318781675
 40
0.1903721649904509
  0
CIRCLE
  8
_1-1_
  6
CONTINUOUS
 62
    7
 10
184.9243617702175
 20
199.4876428552576
 40
0.1903721649904509
  0
CIRCLE
  8
_1-1_
  6
CONTINUOUS
 62
    7
 10
187.34739148938979
 20
198.9491890572213
 40
0.1903721649904509
  0
CIRCLE
  8
_1-1_
  6
CONTINUOUS
 62
    7
 10
186.67433042783995
 20
201.50685078388938
 40
0.1903721649904509
  0
CIRCLE
  8
_1-1_
  6
CONTINUOUS
 62
    7
 10
185.19357629724453
 20
202.04530458192568
 40
0.1903721649904509
  0
CIRCLE
  8
_1-1_
  6
CONTINUOUS
 62
    7
 10
184.25128833667654
 20
202.58375837996201
 40
0.1903721649904509
  0
CIRCLE
  8
_1-1_
  6
CONTINUOUS
 62
    7
 10
186.27048389331716
 20
202.71836564347552
 40
0.1903721649904509
  0
CIRCLE
  8
_1-1_
  6
CONTINUOUS
 62
    7
 10
195.69341298696159
 20
192.21852895375847
 40
0.1903721649904509
  0
CIRCLE
  8
_1-1_
  6
CONTINUOUS
 62
    7
 10
192.19347567171664
 20
191.14162135768584
 40
0.1903721649904509
  0
CIRCLE
  8
_1-1_
  6
CONTINUOUS
 62
    7
 10
192.19347567171664
 20
190.19932102512669
 40
0.1903721649904509
  0
CIRCLE
  8
_1-1_
  6
CONTINUOUS
 62
    7
 10
194.61650539088896
 20
189.66086722709039
 40
0.1903721649904509
  0
CIRCLE
  8
_1-1_
  6
CONTINUOUS
 62
    7
 10
193.94344432933912
 20
192.21852895375847
 40
0.1903721649904509
  0
CIRCLE
  8
_1-1_
  6
CONTINUOUS
 62
    7
 10
192.46269019874367
 20
192.75698275179477
 40
0.1903721649904509
  0
CIRCLE
  8
_1-1_
  6
CONTINUOUS
 62
    7
 10
191.52040223817568
 20
193.29543654983109
 40
0.1903721649904509
  0
CIRCLE
  8
_1-1_
  6
CONTINUOUS
 62
    7
 10
193.5395977948163
 20
193.43004381334461
 40
0.1903721649904509
  0
CIRCLE
  8
_1-1_
  6
CONTINUOUS
 62
    7
 10
195.42418608794341
 20
195.31463210647172
 40
0.1903721649904509
  0
CIRCLE
  8
_1-1_
  6
CONTINUOUS
 62
    7
 10
191.92424877269849
 20
194.23772451039909
 40
0.1903721649904509
  0
CIRCLE
  8
_1-1_
  6
CONTINUOUS
 62
    7
 10
191.92424877269849
 20
193.29542417783995
 40
0.1903721649904509
  0
CIRCLE
  8
_1-1_
  6
CONTINUOUS
 62
    7
 10
194.34727849187078
 20
192.75697037980365
 40
0.1903721649904509
  0
CIRCLE
  8
_1-1_
  6
CONTINUOUS
 62
    7
 10
193.67421743032097
 20
195.31463210647172
 40
0.1903721649904509
  0
CIRCLE
  8
_1-1_
  6
CONTINUOUS
 62
    7
 10
192.19346329972552
 20
195.85308590450802
 40
0.1903721649904509
  0
CIRCLE
  8
_1-1_
  6
CONTINUOUS
 62
    7
 10
191.25117533915753
 20
196.39153970254435
 40
0.1903721649904509
  0
CIRCLE
  8
_1-1_
  6
CONTINUOUS
 62
    7
 10
193.27037089579815
 20
196.52614696605787
 40
0.1903721649904509
  0
CIRCLE
  8
_1-1_
  6
CONTINUOUS
 62
    7
 10
193.8088370658256
 20
197.6030545621305
 40
0.1903721649904509
  0
CIRCLE
  8
_1-1_
  6
CONTINUOUS
 62
    7
 10
190.30889975058068
 20
196.52614696605787
 40
0.1903721649904509
  0
CIRCLE
  8
_1-1_
  6
CONTINUOUS
 62
    7
 10
190.30889975058068
 20
195.58384663349875
 40
0.1903721649904509
  0
CIRCLE
  8
_1-1_
  6
CONTINUOUS
 62
    7
 10
192.73192946975297
 20
195.04539283546242
 40
0.1903721649904509
  0
CIRCLE
  8
_1-1_
  6
CONTINUOUS
 62
    7
 10
192.05886840820312
 20
197.6030545621305
 40
0.1903721649904509
  0
CIRCLE
  8
_1-1_
  6
CONTINUOUS
 62
    7
 10
190.57811427760771
 20
198.14150836016682
 40
0.1903721649904509
  0
CIRCLE
  8
_1-1_
  6
CONTINUOUS
 62
    7
 10
189.63582631703972
 20
198.67996215820312
 40
0.1903721649904509
  0
CIRCLE
  8
_1-1_
  6
CONTINUOUS
 62
    7
 10
191.65502187368034
 20
198.81456942171664
 40
0.1903721649904509
  0
CIRCLE
  8
_1-1_
  6
CONTINUOUS
 62
    7
 10
188.69352598448057
 20
195.44923936998524
 40
0.1903721649904509
  0
CIRCLE
  8
_1-1_
  6
CONTINUOUS
 62
    7
 10
185.19358866923565
 20
194.37233177391261
 40
0.1903721649904509
  0
CIRCLE
  8
_1-1_
  6
CONTINUOUS
 62
    7
 10
185.19358866923565
 20
193.43003144135346
 40
0.1903721649904509
  0
CIRCLE
  8
_1-1_
  6
CONTINUOUS
 62
    7
 10
187.61661838840794
 20
192.89157764331716
 40
0.1903721649904509
  0
CIRCLE
  8
_1-1_
  6
CONTINUOUS
 62
    7
 10
186.94355732685813
 20
195.44923936998524
 40
0.1903721649904509
  0
CIRCLE
  8
_1-1_
  6
CONTINUOUS
 62
    7
 10
185.46280319626268
 20
195.98769316802154
 40
0.1903721649904509
  0
CIRCLE
  8
_1-1_
  6
CONTINUOUS
 62
    7
 10
184.52051523569469
 20
196.52614696605787
 40
0.1903721649904509
  0
CIRCLE
  8
_1-1_
  6
CONTINUOUS
 62
    7
 10
186.53971079233531
 20
196.66075422957138
 40
0.1903721649904509
  0
CIRCLE
  8
_1-1_
  6
CONTINUOUS
 62
    7
 10
189.77042120856208
 20
195.71847864099453
 40
0.1903721649904509
  0
CIRCLE
  8
_1-1_
  6
CONTINUOUS
 62
    7
 10
186.27048389331716
 20
194.64157104492188
 40
0.1903721649904509
  0
CIRCLE
  8
_1-1_
  6
CONTINUOUS
 62
    7
 10
186.27048389331716
 20
193.69927071236276
 40
0.1903721649904509
  0
CIRCLE
  8
_1-1_
  6
CONTINUOUS
 62
    7
 10
188.69351361248945
 20
193.16081691432646
 40
0.1903721649904509
  0
CIRCLE
  8
_1-1_
  6
CONTINUOUS
 62
    7
 10
188.02045255093961
 20
195.71847864099453
 40
0.1903721649904509
  0
CIRCLE
  8
_1-1_
  6
CONTINUOUS
 62
    7
 10
186.53969842034419
 20
196.25693243903083
 40
0.1903721649904509
  0
CIRCLE
  8
_1-1_
  6
CONTINUOUS
 62
    7
 10
185.5974104597762
 20
196.79538623706716
 40
0.1903721649904509
  0
CIRCLE
  8
_1-1_
  6
CONTINUOUS
 62
    7
 10
187.61660601641682
 20
196.92999350058068
 40
0.1903721649904509
  0
CIRCLE
  8
_1-1_
  6
CONTINUOUS
 62
    7
 10
191.52040223817568
 20
189.93009412610854
 40
0.1903721649904509
  0
CIRCLE
  8
_1-1_
  6
CONTINUOUS
 62
    7
 10
188.02046492293076
 20
188.85318653003591
 40
0.1903721649904509
  0
CIRCLE
  8
_1-1_
  6
CONTINUOUS
 62
    7
 10
188.02046492293076
 20
187.91088619747677
 40
0.1903721649904509
  0
CIRCLE
  8
_1-1_
  6
CONTINUOUS
 62
    7
 10
190.44349464210305
 20
187.37243239944047
 40
0.1903721649904509
  0
CIRCLE
  8
_1-1_
  6
CONTINUOUS
 62
    7
 10
189.77043358055323
 20
189.93009412610854
 40
0.1903721649904509
  0
CIRCLE
  8
_1-1_
  6
CONTINUOUS
 62
    7
 10
188.28967944995779
 20
190.46854792414487
 40
0.1903721649904509
  0
CIRCLE
  8
_1-1_
  6
CONTINUOUS
 62
    7
 10
187.34739148938979
 20
191.00700172218117
 40
0.1903721649904509
  0
CIRCLE
  8
_1-1_
  6
CONTINUOUS
 62
    7
 10
189.36658704603042
 20
191.14160898569469
 40
0.1903721649904509
  0
CIRCLE
  8
_1-1_
  6
CONTINUOUS
 62
    7
 10
189.50120668153505
 20
190.60316755964951
 40
0.1903721649904509
  0
CIRCLE
  8
_1-1_
  6
CONTINUOUS
 62
    7
 10
186.00126936629013
 20
189.52625996357688
 40
0.1903721649904509
  0
CIRCLE
  8
_1-1_
  6
CONTINUOUS
 62
    7
 10
186.00126936629013
 20
188.58395963101773
 40
0.1903721649904509
  0
CIRCLE
  8
_1-1_
  6
CONTINUOUS
 62
    7
 10
188.42429908546242
 20
188.04550583298143
 40
0.1903721649904509
  0
CIRCLE
  8
_1-1_
  6
CONTINUOUS
 62
    7
 10
187.75123802391261
 20
190.60316755964951
 40
0.1903721649904509
  0
CIRCLE
  8
_1-1_
  6
CONTINUOUS
 62
    7
 10
186.27048389331716
 20
191.14162135768584
 40
0.1903721649904509
  0
CIRCLE
  8
_1-1_
  6
CONTINUOUS
 62
    7
 10
185.32819593274917
 20
191.68007515572214
 40
0.1903721649904509
  0
CIRCLE
  8
_1-1_
  6
CONTINUOUS
 62
    7
 10
187.34739148938979
 20
191.81468241923565
 40
0.1903721649904509
  0
CIRCLE
  8
_1-1_
  6
CONTINUOUS
 62
    7
 10
207.94323070629224
 20
187.37244477143159
 40
0.1903721649904509
  0
CIRCLE
  8
_1-1_
  6
CONTINUOUS
 62
    7
 10
204.44329339104732
 20
186.29553717535896
 40
0.1903721649904509
  0
CIRCLE
  8
_1-1_
  6
CONTINUOUS
 62
    7
 10
204.44329339104732
 20
185.35323684279984
 40
0.1903721649904509
  0
CIRCLE
  8
_1-1_
  6
CONTINUOUS
 62
    7
 10
206.86632311021961
 20
184.81478304476352
 40
0.1903721649904509
  0
CIRCLE
  8
_1-1_
  6
CONTINUOUS
 62
    7
 10
206.19326204866977
 20
187.37244477143159
 40
0.1903721649904509
  0
CIRCLE
  8
_1-1_
  6
CONTINUOUS
 62
    7
 10
204.71250791807432
 20
187.91089856946792
 40
0.1903721649904509
  0
CIRCLE
  8
_1-1_
  6
CONTINUOUS
 62
    7
 10
203.77021995750636
 20
188.44935236750425
 40
0.1903721649904509
  0
CIRCLE
  8
_1-1_
  6
CONTINUOUS
 62
    7
 10
205.78941551414698
 20
188.58395963101773
 40
0.1903721649904509
  0
CIRCLE
  8
_1-1_
  6
CONTINUOUS
 62
    7
 10
210.50091717694258
 20
184.94940268026818
 40
0.1903721649904509
  0
CIRCLE
  8
_1-1_
  6
CONTINUOUS
 62
    7
 10
210.77013170396961
 20
183.87249508419552
 40
0.1903721649904509
  0
CIRCLE
  8
_1-1_
  6
CONTINUOUS
 62
    7
 10
212.25086109058279
 20
184.54555614574537
 40
0.1903721649904509
  0
CIRCLE
  8
_1-1_
  6
CONTINUOUS
 62
    7
 10
211.57782477301521
 20
190.60316755964951
 40
0.1903721649904509
  0
CIRCLE
  8
_1-1_
  6
CONTINUOUS
 62
    7
 10
211.84703930004224
 20
189.52625996357688
 40
0.1903721649904509
  0
CIRCLE
  8
_1-1_
  6
CONTINUOUS
 62
    7
 10
213.32776868665542
 20
190.19932102512669
 40
0.1903721649904509
  0
CIRCLE
  8
_1-1_
  6
CONTINUOUS
 62
    7
 10
201.61641713735222
 20
195.98769316802154
 40
0.1903721649904509
  0
CIRCLE
  8
_1-1_
  6
CONTINUOUS
 62
    7
 10
201.88563166437925
 20
194.91078557194891
 40
0.1903721649904509
  0
CIRCLE
  8
_1-1_
  6
CONTINUOUS
 62
    7
 10
203.36636105099242
 20
195.58384663349875
 40
0.1903721649904509
  0
CIRCLE
  8
_1-1_
  6
CONTINUOUS
 62
    7
 10
198.65493362014359
 20
195.31463210647172
 40
0.1903721649904509
  0
CIRCLE
  8
_1-1_
  6
CONTINUOUS
 62
    7
 10
198.92414814717063
 20
194.23772451039909
 40
0.1903721649904509
  0
CIRCLE
  8
_1-1_
  6
CONTINUOUS
 62
    7
 10
200.4048775337838
 20
194.91078557194891
 40
0.1903721649904509
  0
CIRCLE
  8
_1-1_
  6
CONTINUOUS
 62
    7
 10
198.78954088365711
 20
188.18012546848607
 40
0.1903721649904509
  0
CIRCLE
  8
_1-1_
  6
CONTINUOUS
 62
    7
 10
199.05875541068414
 20
187.10321787241344
 40
0.1903721649904509
  0
CIRCLE
  8
_1-1_
  6
CONTINUOUS
 62
    7
 10
200.53948479729732
 20
187.77627893396328
 40
0.1903721649904509
  0
CIRCLE
  8
_1-1_
  6
CONTINUOUS
 62
    7
 10
198.11647982210727
 20
185.48785647830448
 40
0.1903721649904509
  0
CIRCLE
  8
_1-1_
  6
CONTINUOUS
 62
    7
 10
198.3856943491343
 20
184.41094888223185
 40
0.1903721649904509
  0
CIRCLE
  8
_1-1_
  6
CONTINUOUS
 62
    7
 10
199.86642373574747
 20
185.08400994378169
 40
0.1903721649904509
  0
CIRCLE
  8
_1-1_
  6
CONTINUOUS
 62
    7
 10
197.98186018660263
 20
184.00710234770904
 40
0.1903721649904509
  0
CIRCLE
  8
_1-1_
  6
CONTINUOUS
 62
    7
 10
198.25107471362966
 20
182.93019475163641
 40
0.1903721649904509
  0
CIRCLE
  8
_1-1_
  6
CONTINUOUS
 62
    7
 10
199.73180410024284
 20
183.60325581318625
 40
0.1903721649904509
  0
CIRCLE
  8
_1-1_
  6
CONTINUOUS
 62
    7
 10
195.55881809543919
 20
184.54555614574537
 40
0.1903721649904509
  0
CIRCLE
  8
_1-1_
  6
CONTINUOUS
 62
    7
 10
195.82803262246622
 20
183.46864854967274
 40
0.1903721649904509
  0
CIRCLE
  8
_1-1_
  6
CONTINUOUS
 62
    7
 10
197.3087620090794
 20
184.14170961122255
 40
0.1903721649904509
  0
CIRCLE
  8
_1-1_
  6
CONTINUOUS
 62
    7
 10
195.69343773094386
 20
187.10321787241344
 40
0.1903721649904509
  0
CIRCLE
  8
_1-1_
  6
CONTINUOUS
 62
    7
 10
195.96265225797086
 20
186.02631027634081
 40
0.1903721649904509
  0
CIRCLE
  8
_1-1_
  6
CONTINUOUS
 62
    7
 10
197.44338164458404
 20
186.69937133789063
 40
0.1903721649904509
  0
CIRCLE
  8
_1-1_
  6
CONTINUOUS
 62
    7
 10
185.19358866923565
 20
190.60316755964951
 40
0.1903721649904509
  0
CIRCLE
  8
_1-1_
  6
CONTINUOUS
 62
    7
 10
185.46280319626268
 20
189.52625996357688
 40
0.1903721649904509
  0
CIRCLE
  8
_1-1_
  6
CONTINUOUS
 62
    7
 10
186.94353258287586
 20
190.19932102512669
 40
0.1903721649904509
  0
ARC
  8
_1-1_
  6
CONTINUOUS
 62
    5
 10
135.680026492557
 20
188.19364805479307
 40
44.485263308963262
 50
346.89166259765625
 51
10.203720092773445
  0
TEXT
  8
_0-0_
 62
    7
 10
141.89189395389042
 20
14.594594594594582
 40
2.5
 41
1
 50
0
  1
縮尺
  0
TEXT
  8
_0-0_
 62
    7
 10
377.10214563318203
 20
22.865493362014362
 40
2.5
 41
1
 50
0
  1
ＮＯ
  0
TEXT
  8
_1-0_
 62
    7
 10
169.90681828679266
 20
13.3181144095756
 40
2.5
 41
1
 50
0
  1
1/5
  0
TEXT
  8
_0-0_
 62
    7
 10
14.594594336844779
 20
24.324324324324323
 40
2.5
 41
1
 50
0
  1
Ｓ型
  0
TEXT
  8
_0-0_
 62
    7
 10
25.556194717819636
 20
20.211577544341225
 40
2.5
 41
1
 50
0
  1
木造
  0
TEXT
  8
_0-0_
 62
    7
 10
383.97877873601146
 20
17.689098667454061
 40
2.5
 41
1
 50
0
  1
Ｓ
  0
TEXT
  8
_1-3_
 62
    7
 10
129.18697254077807
 20
63.815955084723399
 40
2.5
 41
1
 50
0
  1
垂木
  0
TEXT
  8
_1-3_
 62
    7
 10
143.62013533308701
 20
63.815955084723399
 40
2.5
 41
1
 50
0
  1
60ｘ60
  0
TEXT
  8
_1-3_
 62
    7
 10
129.18697047877956
 20
69.81595013592694
 40
2.5
 41
1
 50
0
  1
野地板
  0
TEXT
  8
_1-3_
 62
    7
 10
143.62013533308701
 20
69.81595013592694
 40
2.5
 41
1
 50
0
  1
ｔ＝12
  0
TEXT
  8
_1-3_
 62
    7
 10
129.18696841678104
 20
75.815957559121628
 40
2.5
 41
1
 50
0
  1
下葺き材
  0
TEXT
  8
_1-3_
 62
    7
 10
129.18697047877956
 20
81.815952610325169
 40
2.5
 41
1
 50
0
  1
流し桟
  0
TEXT
  8
_1-3_
 62
    7
 10
49.385894569190782
 20
168.1227276776288
 40
2.5
 41
1
 50
0
  1
Ｓ型　桟瓦
  0
TEXT
  8
_0-0_
 62
    7
 10
396.42858144399281
 20
14.985131959657423
 40
2.5
 41
1
 50
0
  1
9
  0
TEXT
  8
_0-0_
 62
    7
 10
39.721903929839272
 20
15.395235628695104
 40
2.5
 41
1
 50
0
  1
棟
  0
TEXT
  8
_0-0_
 62
    7
 10
50.59271580464133
 20
15.395235628695104
 40
2.5
 41
1
 50
0
  1
1
  0
TEXT
  8
_1-3_
 62
    7
 10
333.23099084802578
 20
168.20098052153716
 40
2.5
 41
1
 50
0
  1
Ｓ型　桟瓦
  0
TEXT
  8
_1-1_
 62
    7
 10
159.29457999564505
 20
242.6695540144637
 40
2.5
 41
1
 50
0
  1
７寸冠瓦
  0
TEXT
  8
_1-1_
 62
    7
 10
218.04550995697849
 20
240.15497156091641
 40
2.5
 41
1
 50
0
  1
被膜銅線　０.９φ
  0
TEXT
  8
_1-1_
 62
    7
 10
122.55609048379435
 20
224.89278432485222
 40
2.5
 41
1
 50
0
  1
面戸漆喰及び葺き土
  0
TEXT
  8
_1-1_
 62
    7
 10
143.71387378589526
 20
75.648787214949323
 40
2.5
 41
1
 50
0
  1
ゴムアス系ルーフィング
  0
TEXT
  8
_1-1_
 62
    7
 10
128.58755176281895
 20
47.128041368221929
 40
2.5
 41
1
 50
0
  1
棟部分の下葺き材（ゴムアス系ルーフィング）は、両方向へそれぞれ250ｍｍ以上重ね合わせること。
  0
TEXT
  8
_1-1_
 62
    7
 10
128.67534341188988
 20
43.016717367218973
 40
2.5
 41
1
 50
0
  1
隅棟部分の下葺き材（ゴムアス系ルーフィング）は、重ね貼りの上に両方向へそれぞれ250ｍｍ以上増し貼りをすること。
  0
LINE
  8
_1-1_
  6
DASHED1
 62
    7
 10
26.702344739759297
 20
99.717469086518165
 11
197.54670014252534
 21
176.59740551097974
  0
LINE
  8
_1-1_
  6
DASHED1
 62
    7
 10
197.54670014252534
 20
176.59740551097974
 11
243.14277527879037
 21
156.07917137233923
  0
LINE
  8
_1-1_
  6
DASHED1
 62
    7
 10
197.54670014252534
 20
176.34806023365704
 11
369.46924114227295
 21
98.98291540145874
  0
LINE
  8
_1-1_
  6
DASHED1
 62
    7
 10
197.54670014252534
 20
176.34806023365704
 11
151.95062253529653
 21
155.82983158604793
  0
POINT
  8
_1-3_
 62
    7
 10
163.74056466497416
 20
129.62995638903718
  0
POINT
  8
_1-3_
 62
    7
 10
209.33664103672109
 20
150.14818778216198
  0
LINE
  8
_1-3_
  6
CONTINUOUS
 62
    7
 10
163.74056466497416
 20
129.62995638903718
 11
154.31282750021489
 21
150.58048645865901
  0
LINE
  8
_1-3_
  6
CONTINUOUS
 62
    7
 10
209.33664103672109
 20
150.14818778216198
 11
199.90890387196183
 21
171.09871785178382
  0
LINE
  8
_1-3_
  6
CONTINUOUS
 62
    7
 10
163.74056466497416
 20
129.62995638903718
 11
209.33664103672109
 21
150.14818778216198
  0
TEXT
  8
_1-3_
 62
    7
 10
184.62356767297587
 20
139.57559917207485
 40
2.5
 41
1
 50
24.227742209999988
  1
250
  0
POINT
  8
_1-3_
 62
    7
 10
183.83955579495191
 20
145.88773504598328
  0
POINT
  8
_1-3_
 62
    7
 10
229.34232209267918
 20
125.41149318008084
  0
LINE
  8
_1-3_
  6
CONTINUOUS
 62
    7
 10
183.83955579495191
 20
145.88773504598328
 11
194.74043486503373
 21
170.11191426862209
  0
LINE
  8
_1-3_
  6
CONTINUOUS
 62
    7
 10
229.34232209267918
 20
125.41149318008084
 11
240.24320116276101
 21
149.63567240271965
  0
LINE
  8
_1-3_
  6
CONTINUOUS
 62
    7
 10
183.83955579495191
 20
145.88773504598328
 11
229.34232209267918
 21
125.41149318008084
  0
TEXT
  8
_1-3_
 62
    7
 10
205.08626839380628
 20
136.87500855399171
 40
2.5
 41
1
 50
-24.227742210000009
  1
250
  0
TEXT
  8
_1-3_
 62
    7
 10
129.18697254077807
 20
92.135121750194031
 40
2.5
 41
1
 50
0
  1
瓦桟
  0
TEXT
  8
_1-3_
 62
    7
 10
141.08936229412433
 20
88.258597013851016
 40
2.5
 41
1
 50
0
  1
※　地域により瓦桟木の大きさは、異なります
  0
TEXT
  8
_1-3_
 62
    7
 10
140.44208155172404
 20
91.858095313351356
 40
2.5
 41
1
 50
0
  1
１５×３０　（樹脂桟木）
  0
LINE
  8
_1-3_
  6
CONTINUOUS
 62
    7
 10
125.77051935969173
 20
93.486118437799604
 11
111.30740135633906
 21
93.486118437799604
  0
ENDSEC
  0
EOF
